I play it this way and it seems more correct to me 
the only part that i felt was off on my other tab was the bridge and title,i was 
just gonna tab that , but i thought i'd might as well put the whole song again. 
-figured out and submitted by Dejackamo Von Rictor from Barstow CA 
>-certian count ~-let note ring out h-hammer on p-pull off |-#-|-seperate part 
intro and chourses(Not so sure about these parts) 
G---11-11--------------------------------------------------- 
D--------11-11-13-13-14-13-14-14-13-13-11-11-13-13-11-9h11-- 
A-99-------------------------------------------------------- 
E----------------------------------------------------------- 

G----------------------------------- 
D----44----------------------------- 
A------44-66-7-6-77-66-44-66-4-2h4-- 
E--22------------------------------- 

verses 
G--------------|---------------------- 
D--------------|---------------------- 
A-7>---------7>|----7>------------7>-- 
E---77-4>-77---|-7>----77--4>--77----- 

bridge(this is the basses time to shine) 
G--------------------------------- 
D--------------66-44-------------- 
A--------7>----------66-77-66-464- 
E--77-4>----77-------------------- 

G--------------------------------------- 
D------------------66-44---------------- 
A-----7776h777-----------66-77-66-4h6p4- 
E--4>-----------77---------------------- 

G------------------------------------------------ 
D-----6-4--------------------66-44--------------- 
A---------6-777-7-7h9p7------------66-77-66-464-- 
E--4-4--------------------77--------------------- 

G------------------------------- 
D------------------------------- 
A------------------------------- 
E--4~---0~---7~---4>---0>---7>-- 

ending/last chorus (you play this *** part like 6 or 8 times) 
G------------------------------------------------ 
D-----66-44------------------66-44--------------- 
A-----------66-77-66-44-66---------66-77-66-464-- 
E--44----------------------77-------------------- 

G------------------------- 
D------------------------- 
A------------------7~----- 
E--4~--0~--7~---4~----7~-- 
"Audio Karate is juat about as bad-ass as all them sexy-everything blonde girls,wow"
Show more