I think this is the first tab for "Rosemead" on the net. It might not
be 100% accurate, but it's the best I could do as the song is quite hard
to figure out! most of the chords should be right!

Intro

Guitar 1 (clean)
e|------------8--------------------------------|
B|---------6-----6-----------------------------|
G|------7--------------------------------------|
D|---------------------------------------------| (8x)
A|---------------------------------------------|
E|---------------------------------------------|

Verse

Guitar 2 (lead)
e|--------------------------------------------|
B|--------------------------------------------|
G|-33333333----------555555-77-88888888-------|
D|-33333333-33333333-555555-77-88888888-------| (4x)
A|-11111111-33333333-333333-55-66666666-------|
E|----------11111111--------------------------|

Chorus

Guitar 1 (clean)
e|---------------------------------------------|
B|---------------------------------------------|
G|------0000-2222-3333-------------------------|
D|-3333----------------------------------------|
A|---------------------------------------------|
E|---------------------------------------------|

I know this part?s gonna be lighter
But it sounds cool with dark ;) and it wrong but sounds cool
e|-----------------------1----------|---------------|    
B|-------3-----------3-----4-3--1-3-|-----------(2x)|(2x)
G|-0-2-3---3-0---2-3---3-------3----|--3-2-0--------|    
D|-------------3--------------------|-3-------3-----|
A|----------------------------------|---------------|
E|----------------------------------|---------------|

e|---------------------------------------------|
B|---------------------------------------------|
G|-------------------33333333-88888888---------|
D|-55555555-33333333-33333333-88888888---------| (5x)
A|-55555555-33333333-11111111-66666666---------|
E|-33333333-11111111---------------------------|

Now play the verse again..
and then its a solo that i cant figure out right now
maybe it?ll be coming later;)

Dont complain on the minisolo...cause i have write that it is wrong..so stop it.


That's it! Questions or comments? Mail to ante_delonge@hotmail.com
Show more