Audio Karate - Rosemead

tabbed by Jason Woodward
dwoodwardr@bigplanet.com


Guitar One

Intro (Very faint)
e|--8-8-8-8-8-8-8-8-8~--|
B|----------------------|
G|----------------------|
D|----------------------|
A|----------------------|
E|----------------------|

Verse Part 1 (x5) - Different rhythm on 4th time
e|-----------------------------------3-3-3-3-3-3-3-3--6-6-6-6-6-6-6-6--|
B|-3-3-3-3-3-3-3-3-------------------3-3-3-3-3-3-3-3--6-6-6-6-6-6-6-6--|
G|-3-3-3-3-3-3-3-3--2-2-2-2-2-2-2-2--5-5-5-5-5-5-5-5--8-8-8-8-8-8-8-8--|
D|-3-3-3-3-3-3-3-3--3-3-3-3-3-3-3-3--5-5-5-5-5-5-5-5--8-8-8-8-8-8-8-8--|
A|-1-1-1-1-1-1-1-1--3-3-3-3-3-3-3-3--3-3-3-3-3-3-3-3--6-6-6-6-6-6-6-6--|
E|------------------1-1-1-1-1-1-1-1------------------------------------|

Interlude (Gradual Release)
e|-----------------------------------|
B|-----------------------------------|
G|--2-2-2-2-2-2-2-2-2-2-2-2-2-2-2-2--|
D|--3-3-3-3-3-3-3-3-3-3-3-3-3-3-3-3--|
A|--3-3-3-3-3-3-3-3-3-3-3-3-3-3-3-3--|
E|--1-1-1-1-1-1-1-1-1-1-1-1-1-1-1-1--|
    ....... 

Interlude Cont'd (x2)
e|--5--5-5-5-5-5--3--3-3-3-3-3--3-3-3-3-3-3-3-3--6-6-6-6-6-6-6-6--|
B|--5--5-5-5-5-5--3--3-3-3-3-3--3-3-3-3-3-3-3-3--6-6-6-6-6-6-6-6--|
G|--4--4-4-4-4-4--2--2-2-2-2-2--5-5-5-5-5-5-5-5--8-8-8-8-8-8-8-8--|
D|--5--5-5-5-5-5--3--3-3-3-3-3--5-5-5-5-5-5-5-5--8-8-8-8-8-8-8-8--|
A|--5--5-5-5-5-5--3--3-3-3-3-3--3-3-3-3-3-3-3-3--6-6-6-6-6-6-6-6--|
E|--3--3-3-3-3-3--1--1-1-1-1-1------------------------------------|

Verse Part 2 (x2)
e|------------------------------------3-3-3-3-3-3-3-3--6-6-6-6-6-6-6-6--|
B|------------------------------------3-3-3-3-3-3-3-3--6-6-6-6-6-6-6-6--|
G|--4-4-4-4-4-4-4-4--2-2-2-2-2-2-2-2--5-5-5-5-5-5-5-5--8-8-8-8-8-8-8-8--|
D|--5-5-5-5-5-5-5-5--3-3-3-3-3-3-3-3--5-5-5-5-5-5-5-5--8-8-8-8-8-8-8-8--|
A|--5-5-5-5-5-5-5-5--3-3-3-3-3-3-3-3--3-3-3-3-3-3-3-3--6-6-6-6-6-6-6-6--|
E|--3-3-3-3-3-3-3-3--1-1-1-1-1-1-1-1------------------------------------|

Next Part
e|----------------------------------3-3x--3-3x--3x--6-6x--6-6x--6x--|
B|----------------------------------3-3x--3-3x--3x--6-6x--6-6x--6x--|
G|--4-4x--4-4x--4x--2-2x--2-2x--2x--5-5x--5-5x--5x--8-8x--8-8x--8x--|
D|--5-5x--5-5x--5x--3-3x--3-3x--3x--5-5x--5-5x--5x--8-8x--8-8x--8x--|
A|--5-5x--5-5x--5x--3-3x--3-3x--3x--3-3x--3-3x--3x--6-6x--6-6x--6x--|
E|--3-3x--3-3x--3x--1-1x--1-1x--1x----------------------------------|

End of Next Part
e|-------------------------------------|
B|-------------------------------------|
G|--4-4x--4-4-4-4--2~-2-2-2-2-2-2-2-2--|
D|--5-5x--5-5-5-5--3~-3-3-3-3-3-3-3-3--|
A|--5-5x--5-5-5-5--3~-3-3-3-3-3-3-3-3--|
E|--3-3x--3-3-3-3--1~-1-1-1-1-1-1-1-1--|

Repeat Verse Part 1 (x5)
Repeat Interlude
Repeat Verse Part 2
Repeat Next Part (x2)
Repeat End of Next Part

Art's Solo
e|--6-6--6-6-------------------------6-6--6-6--------------------------|
B|--6-6--6-6-4--4-6-4-4-3-3----------6-6--6-64--4-6-4-4-3-3------4-6--|
G|--------------------------5-5-3-3--------------------------5-5-------|
D|---------------------------------------------------------------------|
A|---------------------------------------------------------------------|
E|---------------------------------------------------------------------|

Art's Solo Cont?d
e|------------------------------------6-6-6-6-6---------------------------------|
B|--4-4-3-3------4-6-4-4-3-3----------6-6-6-6-64--4-6-4-4-3-4-6-6b8-8b6-4-3x--|
G|----------5-5--------------5-5-3-3--------------------------------------------|
D|------------------------------------------------------------------------------|
A|------------------------------------------------------------------------------|
E|------------------------------------------------------------------------------|

Jason's Solo (this part x3)
e|------------------------------------3-3-3-3-3-3-3-3--6-6-6-6-6-6-6-6--|
B|------------------------------------3-3-3-3-3-3-3-3--6-6-6-6-6-6-6-6--|
G|--4-4-4-4-4-4-4-4--2-2-2-2-2-2-2-2--5-5-5-5-5-5-5-5--8-8-8-8-8-8-8-8--|
D|--5-5-5-5-5-5-5-5--3-3-3-3-3-3-3-3--5-5-5-5-5-5-5-5--8-8-8-8-8-8-8-8--|
A|--5-5-5-5-5-5-5-5--3-3-3-3-3-3-3-3--3-3-3-3-3-3-3-3--6-6-6-6-6-6-6-6--|
E|--3-3-3-3-3-3-3-3--1-1-1-1-1-1-1-1------------------------------------|

Jason's Solo Cont?d
e|------------------------------------|
B|------------------------------------|
G|--4-4-4-4-4-4-4-4--2-2-2-2-2-2-2-2--|
D|--5-5-5-5-5-5-5-5--3-3-3-3-3-3-3-3--|
A|--5-5-5-5-5-5-5-5--3-3-3-3-3-3-3-3--|
E|--3-3-3-3-3-3-3-3--1-1-1-1-1-1-1-1--|

Outro
e|---------------------------------------------------------------------------|
B|---------------------------------------------------------------------------|
G|--7-7-7-7--8-7-7-7---7-7-7-7--8-7-7-7---7-7-7-7--8-7-7-7---7-7-7-7--8-10--|
D|--8-8-8-8--8-8-8-8---8-8-8-8--8-8-8-8---8-8-8-8--8-8-8-8---8-8-8-8--8--8--|
A|---------------------------------------------------------------------------|
E|---------------------------------------------------------------------------|

Outro Cont'd (Strum a lot, listen for rhythm)
e|-----|
B|-----|
G|--7--|
D|--8--|
A|-----|
E|-----|

Guitar Two

Intro (x8)
e|------8----|
B|----6---6--|
G|--7--------|
D|-----------|
A|-----------|
E|-----------|

Verse Part 1 (Strum a lot, listen for rhythm)
e|--8--|
B|--6--|
G|--7--|
D|-----|
A|-----|
E|-----|

Interlude
e|------------------------------------------------------|
B|------------------------------------------------------|
G|--10-10-10-10--12-12-12-12--14-14-14-14--15-15-15-15--|
D|---x--x--x--x---x--x--x--x---x--x--x--x---x--x--x--x--|
A|---8--8--8--8--10-10-10-10--12-12-12-12--13-13-13-13--|
E|------------------------------------------------------|
       .. .. ..     .. .. ..     .. .. ..     .. .. ..

Interlude Cont'd
e|------------10--------------10-----13--11p10-------10----------------------11p10--|
B|------10h11----11--10-10h11----11--10--------11h13----11-11p10-------11p10--------|
G|--12~--------------10~-------------10--------------------------12p10--------------|
D|----------------------------------------------------------------------------------|
A|----------------------------------------------------------------------------------|
E|----------------------------------------------------------------------------------|

Interlude Cont'd
e|------------10--------------10-----13--11p10-------10-------------------------------|
B|------10h11----11--10-10h11----11--10--------11h13----11-11p10----------------------|
G|--12~--------------10~-------------10--------------------------12p10-12b1412-10-----|
D|--------------------------------------------------------------------------------12--|
A|------------------------------------------------------------------------------------|
E|------------------------------------------------------------------------------------|

Verse Part 2 (x2)
e|-------------------------------------------------------------------------------|
B|-------------------------------------------------------------------------------|
G|--12-12-12-12-12-12-12-12--10-10-10-10--12-12--10-10--15-15-15-15-15-15-15-15--|
D|---x--x--x--x--x--x--x--x---x--x--x--x---x--x---x--x---x--x--x--x--x--x--x--x--|
A|--10-10-10-10-10-10-10-10---8--8--8--8--10-10---8--8--13-13-13-13-13-13-13-13--|
E|-------------------------------------------------------------------------------|

Verse Part 2 Cont'd
e|-------------------|
B|-------------------|
G|--8-8-8-8-8-8-8-8--|
D|--x-x-x-x-x-x-x-x--|
A|--6-6-6-6-6-6-6-6--|
E|-------------------|

Next Part (x5)
e|--8-8x--8-8x--8x--|
B|--6-6x--6-6x--6x--|
G|--7-7x--7-7x--7x--|
D|------------------|
A|------------------|
E|------------------|

Repeat Intro (x4)
Repeat Verse Part 1
Repeat Interlude
Repeat Verse Part 2
Repeat Next Part (x6)

Next Part Variation (2:17)
e|--8-8x--8-8x--8-8x--8-8x--8x-8x--|
B|--6-6x--6-6x--6-6x--6-6x--6x-6x--|
G|--7-7x--7-7x--7-7x--7-7x--7x-7x--|
D|---------------------------------|
A|---------------------------------|
E|---------------------------------|

Repeat Next Part (x1)
Repeat Intro (x4)

Art's Solo
e|----------------------------------------------------------------------|
B|----------------------------------------------------------------------|
G|--3-3-3-3-3-3-3-3-------------------5-5-5-5-5-5-5-5--8-8-8-8-8-8-8-8--|
D|--3-3-3-3-3-3-3-3--3-3-3-3-3-3-3-3--5-5-5-5-5-5-5-5--8-8-8-8-8-8-8-8--|
A|--1-1-1-1-1-1-1-1--3-3-3-3-3-3-3-3--3-3-3-3-3-3-3-3--6-6-6-6-6-6-6-6--|
E|-------------------1-1-1-1-1-1-1-1------------------------------------|

Art's Solo Cont?d
e|--------------------------------------------------------|
B|--------------------------------------------------------|
G|--3-3-3-3-3-3-3-3-------------------5-5-5-5-5-5-5-5--8--|
D|--3-3-3-3-3-3-3-3--3-3-3-3-3-3-3-3--5-5-5-5-5-5-5-5--8--|
A|--1-1-1-1-1-1-1-1--3-3-3-3-3-3-3-3--3-3-3-3-3-3-3-3--6--|
E|-------------------1-1-1-1-1-1-1-1----------------------|

Jason's Solo
e|----------------------------------------------------------11p10-13p10h13p10--|
B|---------------------------13b15b13p10--------------10h11--------------------|
G|--12b14-12b14-12b14--12b14-------------12p10-12b14---------------------------|
D|-----------------------------------------------------------------------------|
A|-----------------------------------------------------------------------------|
E|-----------------------------------------------------------------------------|

Jason's Solo Cont'd
e|--11p10h11p10---------------------------------------------------------------------|
B|--------------13p10h13p10--11p10h11p10--------------------------------------------|
G|---------------------------------------10b12b10--12b14-14b12-10--12-12-10-10-8-7--|
D|------------------------------------------------------------------x--x--x--x-x-x--|
A|-----------------------------------------------------------------10-10--8--8-6-5--|
E|----------------------------------------------------------------------------------|

Jason's Solo Cont'd
e|-------------------------------------------------------------------------------------|
B|-------------------------5h6p5h6p5h6--6h8p6h8p6h8--8h10p8h10p8h10--10h11p10h11p10h11-|
G|-------------5h7p5h7p5h7-------------------------------------------------------------|
D|-5h7p5h7p5h7-------------------------------------------------------------------------|
A|-------------------------------------------------------------------------------------|
E|-------------------------------------------------------------------------------------|

Jason's Solo Cont'd
e|-----------------------------------------------------------------------------|
B|--11h13p11h13p11h13--13h15p13h15p13h15--1516p15h16p15h16--16h18p16h18p16h18--|
G|-----------------------------------------------------------------------------|
D|-----------------------------------------------------------------------------|
A|-----------------------------------------------------------------------------|
E|-----------------------------------------------------------------------------|

Jason's Solo Cont'd
e|------------------21b22b21----------------------------|
B|--18h20p18h20p18-----------18h20p18--20b22-22b20--17--|
G|------------------------------------------------------|
D|------------------------------------------------------|
A|------------------------------------------------------|
E|------------------------------------------------------|

Jason's Solo Cont'd
e|----------------------------------------------------------------|
B|--18-15-18----18----18----18----18-15h16--16b18b16-15-----------|
G|-----------17----15----14----15-----------------------17-15~x--|
D|----------------------------------------------------------------|
A|----------------------------------------------------------------|
E|----------------------------------------------------------------|

End With (Strum a lot, listen for rhythm)
e|------|
B|------|
G|--10--|
D|---x--|
A|---8--|
E|------|
Show more