• Song:

    Locked In

  • Artist:

    Audio Transmitted Infection

Intro

E---------------------------
B----3b----5b----8b----10b--
G----3b----5b----8b----10b--
D---------------------------
A---------------------------
E---------------------------

Verse

E---------------------------------------
B---------------------------------------
G---------------------------------------
D----10101010~--5555~--7777~--3-3-3-3~-- X2
A----10101010~--5555~--7777~--3-3-3-3~--
E----8-8-8-0-~--3330~--5550~--1-1-1-0~--

Bridge

E---------------------------
B----3b----5b----8b----10b--
G----3b----5b----8b----10b--
D---------------------------
A---------------------------
E---------------------------

Chorus

E-------------------------------------
B-------------------------------------
G-------------------------------------
D----3333~--7777~--5555~--10-10-10-10~ X2
A----3333~--7777~--5555~--10-10-10-10~
E----1110~--5550~--3330~--8--8--8--0-~

Solo

E------------------------------------------------
B------------------------------------------------
G------------------------------------------------
D--------------5-5-0h33-------------------------- X2
A----5-5-0h33-----------------------5-5-0h3b~~~--
E-------------------------5-5-0h33---------------

E---------------------------------------------------------------
B---------------------------------------------------------------
G--------------------------------------------------------------- X2
D--10---------10-----5--------5----7--------7----3--------3-----
A------10-------10------5------5------7------7------3------3----
E----------8------8--------3----3--------5----5--------1----1~~~

Order: Intro, Verse, Bridge, Chorus, Bridge, Verse, Bridge, Chorus, Bridge, Verse, Bridge x2, Solo, Bridge, Chorus, Bridge, Verse, Bridge.       ©A.T.I. 2005
Show more