• Song:

    Dazed

  • Artist:

    Audioside

Audioside
Dazed
Guitar and Bass parts included

* Every cord shown in lyrics is a major power cord

Guitar: Intro x2
E-------------------------------------------------------------------------------------
B-------------------------------------------------------------------------------------
G-9-9-9-9-9-9-9--------------------------------------------------------------------
D-9-9-9-9-9-9-9--9-9-9-9-9-9-9-9--4-4-4-4-4-4-4-4--11-11-11--9-9-9-9-9
A-7-7-7-7-7-7-7--9-9-9-9-9-9-9-9--4-4-4-4-4-4-4-4--11-11-11--9-9-9-9-9
E--------------------7-7-7-7-7-7-7-7--2-2-2-2-2-2-2-2--9--9--9----7-7-7-7-7

Bass: Intro x2
G----------------------------------------------------------------------------------
D----------------------------------------------------------------------------------
A-7-7-7-7-7-7-7-7--------------------------------------------------------------
E---------------------7-7-7-7-7-7-7-7--2-2-2-2-2-2-2-2--9-9-9--7-7-7-7-7

Lyrics: Verse
E                       B              F#
I found my self without a clue                 
 C#                        B
You weren’t there I didn’t care
E         B              F#
Now I am so confused 
C#                   B
Standing here all alone
E                        B                   F#
Its getting dark and I can’t go home
C#                        B                     
Your dark inside well so am I
E              B     F#
I just feel so alone
C#                   B
Scared inside, where am I?

Guitar: Verse x2
E-------------------------------------------------------------------------------------
B-------------------------------------------------------------------------------------
G-9-9-9-9-9-9-9--------------------------------------------------------------------
D-9-9-9-9-9-9-9--9-9-9-9-9-9-9-9--4-4-4-4-4-4-4-4--11-11-11--9-9-9-9-9
A-7-7-7-7-7-7-7--9-9-9-9-9-9-9-9--4-4-4-4-4-4-4-4--11-11-11--9-9-9-9-9
E--------------------7-7-7-7-7-7-7-7--2-2-2-2-2-2-2-2--9--9--9----7-7-7-7-7

Bass: Verse x2
G----------------------------------------------------------------------------------
D----------------------------------------------------------------------------------
A-7-7-7-7-7-7-7-7--------------------------------------------------------------
E---------------------7-7-7-7-7-7-7-7--2-2-2-2-2-2-2-2--9-9-9--7-7-7-7-7








Lyrics: Chorus x2
E                       F#                             G#
I’m dazed, I’m crazed, I’m sad, I’m alone
            D             A
Please give me a home
E                       F#                                   G#
I’m happy, I’m angry, I’m moody, I’m mad
            D            A
Please leave me alone 

Guitar: Chorus
E-----------------------------------------------------------------------------------------------
B-----------------------------------------------------------------------------------------------
G-9-9-9-9-9-9-9-9-11-11-11-11-11-11-11-11-13-13-13-13-13-13-13-13---7-7-7--
D-9-9-9-9-9-9-9-9-11-11-11-11-11-11-11-11-13-13-13-13-13-13-13-13---7-7-7-7
A-7-7-7-7-7-7-7-7-9---9--9---9--9---9--9---9--11-11-11-11-11-11-11-11---5-5-5-7
E-----------------------------------------------------------------------------------------------5

Bass: Chorus
G------------------------------------------------------------------------------------
D------------------------------------------------------------------------------------
A-7-7-7-7-7-7-7-7-9-9-9-9-9-9-9-9-11-11-11-11-11-11-11-11--5-5-5---
E----------------------------------------------------------------------------------5

Lyrics: Verse 2
E                       B              F#
Now I don’t know what to do                 
 C#                 B
So lost inside I can’t hide
E         B              F#
Now I’m sure I don’t know you 
        C#                 B
You look familiar anyway
E                  B             F#
I don’t have a place to go
C#              B                     
Here is fine I don’t mind
E              B        F#
I just want to go home
C#                   B
Scared inside, where am I?

Guitar: Verse 2 x2
E-------------------------------------------------------------------------------------
B-------------------------------------------------------------------------------------
G-9-9-9-9-9-9-9--------------------------------------------------------------------
D-9-9-9-9-9-9-9--9-9-9-9-9-9-9-9--4-4-4-4-4-4-4-4--11-11-11--9-9-9-9-9
A-7-7-7-7-7-7-7--9-9-9-9-9-9-9-9--4-4-4-4-4-4-4-4--11-11-11--9-9-9-9-9
E--------------------7-7-7-7-7-7-7-7--2-2-2-2-2-2-2-2--9--9--9----7-7-7-7-7





Bass: Verse 2 x2
G----------------------------------------------------------------------------------
D----------------------------------------------------------------------------------
A-7-7-7-7-7-7-7-7--------------------------------------------------------------
E---------------------7-7-7-7-7-7-7-7--2-2-2-2-2-2-2-2--9-9-9--7-7-7-7-7

Lyrics: Chorus x2
E                       F#                             G#
I’m dazed, I’m crazed, I’m sad, I’m alone
            D             A
Please give me a home
E                       F#                                   G#
I’m happy, I’m angry, I’m moody, I’m mad
            D            A
Please leave me alone 

Guitar: Chorus
E-----------------------------------------------------------------------------------------------
B-----------------------------------------------------------------------------------------------
G-9-9-9-9-9-9-9-9-11-11-11-11-11-11-11-11-13-13-13-13-13-13-13-13---7-7-7--
D-9-9-9-9-9-9-9-9-11-11-11-11-11-11-11-11-13-13-13-13-13-13-13-13---7-7-7-7
A-7-7-7-7-7-7-7-7-9---9--9---9--9---9--9---9--11-11-11-11-11-11-11-11---5-5-5-7
E-----------------------------------------------------------------------------------------------5

Bass: Chorus
G------------------------------------------------------------------------------------
D------------------------------------------------------------------------------------
A-7-7-7-7-7-7-7-7-9-9-9-9-9-9-9-9-11-11-11-11-11-11-11-11--5-5-5---
E----------------------------------------------------------------------------------5

Bridge: Lyrics x1
F#         G#                       D                 E             A
All this time I have been looking and you weren’t there
F#         G#                       D                 E             A
All my lonely days and nights I was searching for you
F#        G#        A                                    B 
All the times I screamed out your name wondering where you where 
F#               G#       D
You where always there
F#               G#       D
You where always there

Lyrics: Final Chorus x2
E                       F#                             G#
I’m dazed, I’m crazed, I’m sad, I’m alone
            D             A
Please give me a home
E                       F#                                   G#
I’m happy, I’m angry, I’m moody, I’m mad
            D            A
Please leave me alone 





Guitar: Final Chorus
E-----------------------------------------------------------------------------------------------
B-----------------------------------------------------------------------------------------------
G-9-9-9-9-9-9-9-9-11-11-11-11-11-11-11-11-13-13-13-13-13-13-13-13---7-7-7--
D-9-9-9-9-9-9-9-9-11-11-11-11-11-11-11-11-13-13-13-13-13-13-13-13---7-7-7-7
A-7-7-7-7-7-7-7-7-9---9--9---9--9---9--9---9--11-11-11-11-11-11-11-11---5-5-5-7
E-----------------------------------------------------------------------------------------------5





Bass:  Final Chorus
G------------------------------------------------------------------------------------
D------------------------------------------------------------------------------------
A-7-7-7-7-7-7-7-7-9-9-9-9-9-9-9-9-11-11-11-11-11-11-11-11--5-5-5---
E----------------------------------------------------------------------------------5
Show more