• Song:

    Be yourself

  • Artist:

    Audioslave

  • Album:

    Live IN Washington DC -...

Band: Audioslave
Guitarist: Tom Morello
Album: Unreleased
Song: Be Yourself

h=hammer on
p=pull off
/=slide
x=palm mute

Intro x2
e|-2---------------------2~-|
B|-3--2h3p2-----------3-----|
G|-4---------------4--------|
D|-4------------4-----------|
A|-2---------2--------------|
E|--------------------------|

Verse x3
e|----|--------------------------------------|
B|-12~|----------/14-15~--17/14~/15-/10--12~-|
G|----|-11-14~-------------------------------|
D|PLAY|--------------------------------------|
A|ONLY|--------------------------------------|
E|ONCE|--------------------------------------|

e|--------------------------||---------------|
B|----------/14-15~--14/10--||------14/12~---| Do not play
G|-11-14~-------------------||--11-----------| this last part
D|--------------------------||---------------| the third time.
A|--------------------------||---------------| Go straight to 
E|--------------------------||---------------| pre-chorus.
        
1st Pre-Chorus
e|-2-2-2-2-2-2-2-2-2-2-2-2-2-2-2-2-|
B|-3-3-3-3-3-3-3-3-3-3-3-3-3-3-3-3-|
G|-4-4-4-4-4-4-4-4-4-4-4-4-4-4-4-4-|
D|-4-4-4-4-4-4-4-4-4-4-4-4-4-4-4-4-|
A|-2-2-2-2-2-2-2-2-2-2-2-2-2-2-2-2-|
E|---------------------------------|
   x x x x x x x x then get louder…

2nd Pre-Chorus
e|-2-2-2-2-2-2-2-2-|
B|-3-3-3-3-3-3-3-3-|
G|-4-4-4-4-4-4-4-4-|
D|-4-4-4-4-4-4-4-4-|
A|-2-2-2-2-2-2-2-2-|
E|-----------------|

Chorus
e|---------------------------------|
B|---------------------------------|
G|-4-4-4-4-4-4-4-4-7-7-7-7-7-7-7-7-|
D|-4-4-4-4-4-4-4-4-7-7-7-7-7-7-7-7-|
A|-2-2-2-2-2-2-2-2-5-5-5-5-5-5-5-5-|
E|---------------------------------|

E|---------------------------------|
B|---------------------------------|
G|---------------------------------|
D|-5-5-5-5-5-5-5-5-2-2-2-2-2-2-2-2-|
A|-5-5-5-5-5-5-5-5-2-2-2-2-2-2-2-2-|
E|-3-3-3-3-3-3-3-3-0-0-0-0-0-0-0-0-|

Solo (played with wah pedal)
e|----------------------------------------------------|
B|----------------------------------------------------|
G|----------------------------------------------------|
D|----------------------------------------------------|
A|-------5--7--9--7--5--4---------5--7--5--4--2--0----|
E|-7--9----------------------7--9---------------------|

e|----------------------------------------------------|
B|----------------------------------------------------|
G|----------------------------------------------------|
D|----------------------------------------------------|
A|------5--7--9--10--9--10--12--10--9-7-9-9-9-9-------|
E|7--9------------------------------------------------|

e|----------------------------------------------------|
B|----------------------------------------------------|
G|----------------------------------------------------|
D|----------------------------------------------------|
A|-12h14-14-14-14-17p14-14-14-14-12h14-14-14-14-17h14-|
E|----------------------------------------------------|

e|----------------------------------------------------|
B|----------------------------------------------------|
G|----------------------------------------------------|
D|----------------------------------------------------|
A|-14-14-14-12h14-14-14-14----------------------14-17-|
E|-------------------------17h14-14-14-14-14-17-------|

e|----------------------------------------------------|
B|----------------------------------------------------|
G|----------------------------------------------------|
D|------------------------12h14-14-14-14--------------|
A|---------12h14-14-14-14----------------12h14-14-14--|
E|17-17-14--------------------------------------------|

e|----------------------------------------------------|
B|----------------------------------------------------|
G|----------------------------------------------------|
D|12h14-14-14-14-14b-12b-14b-12-14b-14-12-14-12-------|
A|----------------------------------------------14-12-|
E|----------------------------------------------------|

Post-Solo
e|-------------|
B|-------7-----|
G|---------7---| Play
D|-----9-----9-| Many
A|---9---------| Times
E|-7-----------|

Outro (played with wah pedal)
e|-------------------------------------------------|
B|-------------------------------------------------|
G|-------------------------------------------------|
D|-------------------------------------------------|
A|-------5--7--9--7--5--4---------5--7--5--4--2--0-|
E|-7--9----------------------7--9------------------|

e|-------------------------------------------------|
B|-------------------------------------------------|
G|-------------------------------------------------|
D|-------------------------------------------------|
A|-------5--7--9--7--5--4---------5--7--5--4--2--0-|
E|-7--9----------------------7--9------------------|

e|-------------------------------------------------|
B|-------------------------------------------------|
G|-------------------------------------------------|
D|-------------------------------------------------|
A|-------5--7--9--7--5--4---------5--7--5--4--2--0-|
E|-7--9----------------------7--9------------------|

e|-------------------------------------------------|
B|-------------------------------------------------|
G|-------------------------------------------------|
D|-------------------------------------------------|
A|-------5--7--9--10--9--10--12--10--9--7-9-9-9-9~~|
E|--7--9-------------------------------------------|


Order:
Intro
Verse
1st Pre-Chorus
Chorus
Verse
2nd Pre-Chorus
Chorus
Solo
Post-Solo
Chorus
Outro

That’s it, enjoy it! The album should be coming out later this May!
Show more