• Song:

    Be yourself

  • Artist:

    Audioslave

  • Album:

    Live IN Washington DC -...

Audioslave
Be Yourself
Out Of Exile
Tabbed By Charlie Stephens
Any Comments Email: digburyme666@hotmail.com
h    : hammer on
p    : pull of
/    : slide up
    : slide down
~    : vibrato
b    : bend
PM...: Palm Muted

Tuning: E,A,D,G,B,E
Capo 2nd Fret. 
Anyone who has rated this badly i dont think you are reading this right this corrosponds to the capo at 
2nd fret so when i say fret 10 i really mean fret 12. This is because with the capo on fret 10 you play 
on fret 12. Watch morello play it he uses a capo on 2nd fret. 
He dosent play it in open tuning.
Intro:

   Am
e|------------------0--|
B|--1---0h1p0------0---|
G|--2-------------2----|
D|--2------------2-----|
A|--------------0------|
E|-------------1-------| X2

Main Riff (x3)

e|-5---0-3---7-8--10-7-8-3----------------------------|
B|----------------------------------------------------|
G|----------------------------------------------------|
D|----------------------------------------------------|
A|----------------------------------------------------|
E|----------------------------------------------------| Slide

e|-5---0-3---7-8--7--3-0-7----------------------------|
B|----------------------------------------------------|
G|----------------------------------------------------|
D|----------------------------------------------------|
A|----------------------------------------------------|
E|----------------------------------------------------| Slide

Pre Chorus:
e|-5-|
B|-5-|
G|-7-|
D|-7-|
A|-5-|
E|-5-| x8


Chorus:

   Am    C    F    Dm
e|------------1----1--|
B|--1----1----1----3--|
G|--2---------2----2--|
D|--2----2----3-------|
A|-------3----3-------|
E|------------1-------| x2


2nd Verse
2nd Chorus


Solo:

Wah Wah effect turned up high for this!

e|-------------------------------------------------------------------------|
B|-------------------------------------------------------------------------|
G|-------------------------------------------------------------------------|
D|--------0-2-0-------------0-----------------0-2-3-2-3-5-3-2-0-2-2-2-2----|
A|--0-2-3-------3-2---0-2-3---3-2-0-----0-2-3------------------------------|
E|----------------------------------3--------------------------------------|

e|-------------------------------------------------------------------------------------------|
B|--------------------------------------------------------------------------8----------------|
G|---------------------------------------------------------------------7-11----11-7----------|
D|--5h7-7-7-7-10p7-7-7---5h7-7-7-7-10p7-7-7---5h7-7-7-7-10p7-7-7----10--------------10-7-----|
A|-------------------------------------------------------------------------------------------|
E|-------------------------------------------------------------------------------------------|

e|-------------------------------------------------------------------------------------------|
B|-------------------------------------------------------------------------------------------|
G|------------5h7-7-7-----------5h7-7-7----8~-7~-8~-7~-8-7-5-7-5-----------------------------|
D|--5h7-7-7-7---------5h7-7-7-7-------------------------------------7-5-7--------------------|
A|-------------------------------------------------------------------------------------------|
E|-------------------------------------------------------------------------------------------|


Bridge: 

    
e|-------1----------3----------5---------------------------|
B|------1----------3----------5----------------------------|
G|-----2----------4----------5-------9-----7----5----2-----|
D|----3----------5----------7--------9-----7----5----2-----|
A|---3----------5----------7---------7-----5----3----0-----|
E|--1----------3----------5--------------------------------|  x3
			
e|-------1----------3------|
B|------1----------3-------|
G|-----2----------4--------|
D|----3----------5---------|
A|---3----------5----------|
E|--1----------3-----------|

   Am    C    F    Dm
e|------------1----1--|
B|--1----1----1----3--|
G|--2---------2----2--|
D|--2----2----3-------|
A|-------3----3-------|
E|------------1-------| x2 with palm mute


3rd Chorus x2
3rd Chorus with solo playing in the background


End on:
e|-1-|
B|-1-|
G|-2-|
D|-3-|
A|-3-|
E|-1-|
Show more