• Song:

    Be yourself

  • Artist:

    Audioslave

  • Album:

    Live IN Washington DC -...

This is the first single of their second album, Out Of Exile!


I have completed all parts to the song now, and all song pretty much perfect
hope you like it!

Intro:

   Bm
e|--2---------------2--||--2---------------2--||
B|--3---2h3p2------2---||--3---2h3p2------2---||
G|--4-------------4----||--4-------------4----||
D|--4------------4-----||--4------------4-----||
A|--2-----------2------||--2-----------2------||
E|-------------3-------||-------------3-------||

Main Riff

e|----------------------------------------------------|
B|-12-------10---10/14--15---17/14--14--15--/-10--12--|
G|-------11-------------------------------------------|
D|----------------------------------------------------|
A|----------------------------------------------------|
E|----------------------------------------------------|

e|----------------------------------------------------|
B|-----------10--10/14--15---1410--10------14--/-12--|
G|-------11------------------------------11-----------|
D|----------------------------------------------------|
A|----------------------------------------------------|
E|----------------------------------------------------|

Pre Chorus:
e|-7-|
B|-7-|
G|-9-|
D|-9-|
A|-7-|
E|-7-| x8


Chorus:

   Bm    D    G    Em
e|--2----5-------------|
B|--3----7-------------|
G|--4----7----4----0---|
D|--4----7----5----2---|
A|--2----5----5----2---|
E|------------3----0---| x2


2nd Verse
2nd Chorus


Solo:

Wah Wah effect turned up high for this!

e|-------------------------------------------------------------------------|
B|-------------------------------------------------------------------------|
G|-------------------------------------------------------------------------|
D|--------2-4-2-------------2-----------------2-4-5-4-5-7-5-4-2-4-4-4-4----|
A|--2-4-5-------5-4---2-4-5---5-4-2-0---2-4-5------------------------------|
E|-------------------------------------------------------------------------|

e|-------------------------------------------------------------------------------------------|
B|--------------------------------------------------------------------------10---------------|
G|---------------------------------------------------------------------9-11----11-9----------|
D|--7h9-9-9-9-12p9-9-9---7h9-9-9-9-12p9-9-9---7h9-9-9-9-12p9-9-9----12--------------12-9-----|
A|-------------------------------------------------------------------------------------------|
E|-------------------------------------------------------------------------------------------|

e|-------------------------------------------------------------------------------------------|
B|-------------------------------------------------------------------------------------------|
G|------------7h9-9-9-----------7h9-9-9----10~-9~-10~-9~-10-9-7-9-7--------------------------|
D|--7h9-9-9-9---------7h9-9-9-9-------------------------------------9-7-9--------------------|
A|-------------------------------------------------------------------------------------------|
E|-------------------------------------------------------------------------------------------|


Bridge: 

    G          A          Bm         F     E    D    Bm
e|-------3----------5----------7---------------------------|
B|------3----------5----------7----------------------------|
G|-----4----------6----------7-------11----9----7----4-----|
D|----5----------7----------9--------11----9----7----4-----|
A|---5----------7----------9---------9-----7----5----2-----|
E|--3----------5----------7--------------------------------|  x3


Pre Chorus x2
3rd Chorus with solo playing in the background


End on:
e|-3-|
B|-3-|
G|-4-|
D|-5-|
A|-5-|
E|-3-|
Show more