• Song:

    Be yourself

  • Artist:

    Audioslave

  • Album:

    Live IN Washington DC -...

-----------------------------------------------------------------------------
			     Be Yourself - Audioslave
-----------------------------------------------------------------------------
Tabbed by: Dave Carlson
Email: carlson-online@freeola.net


This is the new Single of the soon to be released second album!

Intro:


   Bm
e|--2---------------2--||--2---------------2--||
B|--3---2h3p2------3---||--3---2h3p2------3---||
G|--4-------------4----||--4-------------4----||
D|--4------------4-----||--4------------4-----||
A|--2-----------2------||--2-----------2------||
E|---------------------||---------------------||

Main Riff

e|---------------------------------------------------|
B|-12---------------14--15---15/17--14--15--10--12---|
G|-------11-14---------------------------------------|
D|---------------------------------------------------|
A|---------------------------------------------------|
E|---------------------------------------------------|

e|---------------------------------------------------|
B|------------------14--15---1714--10------14--12---|
G|-------11--14--------------------------11----------|
D|---------------------------------------------------|
A|---------------------------------------------------|
E|---------------------------------------------------|


Chorus: Bm D G


Bridge: G A Bm (Unsure, sounds alright)



Thats about it! i Will update with solo once done!

please email me with any corrections!
Enjoy!


| /  slide up
|   slide down
| h  hammer-on
| p  pull-off
| ~  vibrato
| +  harmonic
| x  Mute note
=============================================================================
Show more