• Song:

    Be yourself

  • Artist:

    Audioslave

  • Album:

    Live IN Washington DC -...

Band   : Audioslave
Song   : Be Yourself
Tuning : Standar
Tabber : StereoFreak

Now this is the song i like best....actually it isn`t, but it`s a good song!!
for this song you need a Wah, a capo and some reverb...
the capo is on the 2 fret....I saw it in the video;)
but anyway! It goes something like this....LALAAA!....kiddin...

Intro
e|-0-----------------------0~ --------------------------|
b|-3~—2-h3-2~-----------0~ -----------------------------|
g|-4~----------------4~ ----------(x2)------------------|
d|-4~--------------4~ ----------------------------------|
a|--------------0~ -------------------------------------|
e|------------3~ ---------------------------------------|


Verse...one time before the singing starts...
e|------------------------------------------------------|
b|--12------10--10/14--15--17/14—15/10/12---------------|
g|------11----------------------------------------------|
d|------------------------------------------------------|
a|------------------------------------------------------|
e|------------------------------------------------------|   


e|------------------------------------------------------|
b|--12-----10/14--15—14/10----14------------------------|
g|-----11------------------11-------(x2)----------------|
d|------------------------------------------------------|
a|------------------------------------------------------|
e|------------------------------------------------------|

Pre Chorus... starting with palm muted....getti`n louder and louder...;)
e|------------------------------------------------------|
b|------------------------------------------------------|
g|------------------------------------------------------|
d|-44444444---------------------------------------------|
a|-44444444---------------------------------------------|
e|-22222222---------------------------------------------|

Chorus
e|------------------------------------------------------|
b|--------------..--------------------------------------|
g|-6-666-2-2-9-999-----------------|11-11-11-11|--------|
d|-6-666-2-2-9-999-22-7-777-7-4444-|11-11-11-11|----(x2)|
a|-4-444-----7-777-22-7-777-7-4444-|9--9--9--9-|--------|
e|--------------------5-555-5-2222----------------------|
                                 this part^ is with the bass, but it sounds good with the gitar too..u decide;)

Verse
 
e|------------------------------------------------------|
b|--12------10/14--15--17/14—15/10/12-------------------|
g|------11----------------------------------------------|
d|------------------------------------------------------|
a|------------------------------------------------------|
e|------------------------------------------------------|   


e|------------------------------------------------------|
b|--12-----10/14--15—14/10----14------------------------|
g|-----11------------------11-------(x2)----------------|
d|------------------------------------------------------|
a|------------------------------------------------------|
e|------------------------------------------------------|

Pre-Chorus(nr2)
e|------------------------------------------------------|
b|------------------------------------------------------|
g|-4~---------------------------------------------------|
d|-4~-44444444------------------------------------------|
a|-4~-44444444------------------------------------------|
e|-2~-22222222------------------------------------------|

Chorus
e|------------------------------------------------------|
b|------------------------------------------------------|
g|-6-666-2-2-9-999-----------------|11-11-11-11|--------|
d|-6-666-2-2-9-999-22-7-777-7-4444-|11-11-11-11|----(x4)|
a|-4-444-----7-777-22-7-777-7-4444-|9--9--9--9-|--------|
e|--------------------5-555-5-2222----------------------|


Solo...for the solo you need a wah...waou wah wah waou

e|------------------------------------------------------|
b|------------------------------------------------------|
g|------------------------------------------------------|
d|------------------------------------------------------|
a|-------5-7-9-7-5-------------5-7-5--------------------|
e|-7-9----------------9-7-9-----------9-7-5-------------|



e|------------------------------------------------------|
b|------------------------------------------------------|
g|------------------------------------------------------|
d|------------------------------------------------------|
a|------5-7-9-10-9-10-12-10-9-7-9~-9~-9~-9~-------------|
e|-7-9--------------------------------------------------|


e|------------------------------------------------------|
b|------------------------------------------------------|
g|------------------------------------------------------|
d|-----------------------------------------------------|
a|-12-h14-14-xx-17-h14-14-xx-12-h14-14-xx-17-h14-14----|
e|------------------------------------------------------|


e|------------------------------------------------------|
b|------------------------------------------------------|
g|-----------------------------------11-12-11-----------|
d|----------------------------12-14------------14-12----|
a|-xx-12-h14-14-xx-17-h14-xx--------------------------12|
e|------------------------------------------------------|

e|------------------------------------------------------|
b|------------------------------------------------------|
g|------------------------------------------------------|
d|--------------12-h14-14-xx----------------12-h14-14-xx|
a|12-h14-14-xx----------------12-h14-14-xx--------------|
e|------------------------------------------------------|

On this part I think there`s some mixed kinda stuff or maybe Morello uses his whammy I`m not shure...:S
e|------------------------------------------------------|
b|------------------------------------------------------|
g|------------------------------------------------------|
d|-14-14-14b-14b-14b-14-14-14-14b-14b-14b-14------------|
a|------------------------------------------------------|
e|------------------------------------------------------|

e|------------------------------------------------------|
b|------------------------------------------------------|
g|------------------------------------------------------|
d|-14-14-14b-14b-14b-14-12------------------------------|
a|---------------------------14-12-14~------------------|
e|------------------------------------------------------|

Bridge
e|-------2--------------0-------------0-----------------|
b|-----3---3----------5---5---------7-------------------|
g|---4--------4-----6-------6-----7------7--------------|
d|-5------------5-7-----------7-9----------9------------|
a|------------------------------------------------------|
e|------------------------------------------------------|

e|------------------------------------------------------|
b|------------------------------------------------------|
g|------------------(x3)--------------------------------|
d|------------------------------------------------------|
a|-2-9-7-7-5-2~-----------------------------------------|
e|------------------------------------------------------|
the fourth time, this part is gone^

Pre Chorus...(Palm Muted)
e|------------------------------------------------------|
b|------------------------------------------------------|
g|-66666666-99999999-----------1111111111111111---------|
d|-66666666-99999999--77777777-1111111111111111---------|
a|-44444444-77777777--77777777-9-9-9-9-9-9-9-9----------|
e|--------------------55555555--------------------------|

Chorus/ending...solo in the backgroung mixed... 
e|------------------------------------------------------|
b|------------------------------------------------------|
g|-6-666-2-2-9-999-----------------|11-11-11-11|--------|
d|-6-666-2-2-9-999-22-7-777-7-4444-|11-11-11-11|----(x4)|
a|-4-444-----7-777-22-7-777-7-4444-|9--9--9--9-|--------|
e|--------------------5-555-5-2222----------------------|

FINAL TONE!
|--------------------------|
|--------------------------|
|--------------------------|
|-5~--(let it riiiiing)----|
|-5~-----------------------|
|-3~-----------------------|
Show more