• Song:

    Be yourself

  • Artist:

    Audioslave

  • Album:

    Live IN Washington DC -...

Artist: Audioslave
Song: Be Yourself

Standard Tuning (E, A, D, G, B, e)

There already was a tab for this song, but it had a few errors, so I decided to clean it up a bit.

INTRO (0:00) - Play two times - Clean Guitar

   Bm
e|-2----------------------2~-|
B|-3--2h3p2------------3-----|
G|-4----------------4--------|
D|-4-------------4-----------|
A|-2----------2--------------|
E|----------3----------------|

VERSE (0:16) - Play three times - Clean Guitar

e|----------------------------------------------|
B|-(12~)---------12/14-15~--17/14~-15/10-10/12~-|
G|-------11-14~---------------------------------|
D|----------------------------------------------|
A|----------------------------------------------|
E|----------------------------------------------|

e|--------------------------||---------------|
B|----10~-12/14-15~--14/10--||------14/12~---| Do not play
G|-11-----------------------||--11-----------| this last part
D|--------------------------||---------------| on third time.
A|--------------------------||---------------| Go straight
E|--------------------------||---------------| to pre-chorus.
        
PRE-CHORUS (1:04) - Played Once - Clean Guitar

   B5
e|---------------------------------|
B|---------------------------------|
G|-4-4-4-4-4-4-4-4-4-4-4-4-4-4-4-4-|       *This power chord palm muted.
D|-4-4-4-4-4-4-4-4-4-4-4-4-4-4-4-4-|
A|-2-2-2-2-2-2-2-2-2-2-2-2-2-2-2-2-|
E|---------------------------------|

CHORUS (1:08) - Played twice - Clean guitar

   B5              D5
e|---------------------------------|
B|---------------------------------|
G|-4-4-4-4-4-4-4-4-7-7-7-7-7-7-7-7-|
D|-4-4-4-4-4-4-4-4-7-7-7-7-7-7-7-7-|
A|-2-2-2-2-2-2-2-2-5-5-5-5-5-5-5-5-|
E|---------------------------------|

   G5              Em      E5
E|---------------------------------|
B|---------------------------------|
G|-------------------------9-9-9-9-|
D|-5-5-5-5-5-5-5-5-2-2-2-2-9-9-9-9-|
A|-5-5-5-5-5-5-5-5-2-2-2-2-7-7-7-7-|
E|-3-3-3-3-3-3-3-3-0-0-0-0---------|

VERSE (1:24) - Played twice - Clean guitar

e|----------------------------------------------|
B|-(12~)---------12/14-15~--17/14~-15/10-10/12~-|
G|-------11-14~---------------------------------|
D|----------------------------------------------|
A|----------------------------------------------|
E|----------------------------------------------|

e|--------------------------||---------------|
B|----10~-12/14-15~--14/10--||------14/12~---| Do not play
G|-11-----------------------||--11-----------| this last part
D|--------------------------||---------------| on third time.
A|--------------------------||---------------| Go straight
E|--------------------------||---------------| to pre-chorus.

PRE-CHORUS (2:04) - Play once - Clean guitar

   B5
e|---------------------------------|
B|---------------------------------|
G|-4-4-4-4-4-4-4-4-4-4-4-4-4-4-4-4-|      *This power chord palm muted.
D|-4-4-4-4-4-4-4-4-4-4-4-4-4-4-4-4-|
A|-2-2-2-2-2-2-2-2-2-2-2-2-2-2-2-2-|
E|---------------------------------|

CHORUS (2:06) - Play four times - Clean guitar

   B5              D5
e|---------------------------------|
B|---------------------------------|
G|-4-4-4-4-4-4-4-4-7-7-7-7-7-7-7-7-|
D|-4-4-4-4-4-4-4-4-7-7-7-7-7-7-7-7-|
A|-2-2-2-2-2-2-2-2-5-5-5-5-5-5-5-5-|
E|---------------------------------|

   G5              Em      E5
E|---------------------------------|
B|---------------------------------|
G|-------------------------9-9-9-9-|
D|-5-5-5-5-5-5-5-5-2-2-2-2-9-9-9-9-|
A|-5-5-5-5-5-5-5-5-2-2-2-2-7-7-7-7-|
E|-3-3-3-3-3-3-3-3-0-0-0-0---------|

SOLO (2:39) - Wah Pedal
e|------------------------------------|---------------------------------|
B|------------------------------------|---------------------------------|
G|------------------------------------|---------------------------------|
D|--------2-4-2------------2----------|--------2-4-5-4-5-7-5-4-2-4-4-4--|
A|--2-4-5-------5-4--2-4-5---5-4-2-0--|--2-4-5--------------------------|
E|------------------------------------|---------------------------------|

e|----------------------------------------|----------------------|
B|----------------------------------------|---------10-----------|
G|----------------------------------------|----9-11----11-9------|
D|-7h9-9-12p9-9-7h9-9-12p9-9-7h9-9-12p9-9-|-12--------------12-9-|
A|----------------------------------------|----------------------|
E|----------------------------------------|----------------------|

e|----------------------------------------------------|
B|----------------------------------------------------|
G|-------7h9-9-------7h9-9-10-9-10-9-10-9-7-9-7-------|
D|-7h9-9-------7h9-9----------------------------9-7-9-|
A|----------------------------------------------------|
E|----------------------------------------------------|

BRIDGE (3:11) - Played three times - Clean guitar

e|-------------|--------------|-------------||----------||
B|-------7-----|-------7------|-------7-----||----------|| Do not play
G|---------7---|---------7----|---------7---||-11-9-7-4-|| this last part
D|-----9-----9-|-----9-----9--|-----9-----9-||-11-9-7-4-|| on third time.
A|---9---------|---9----------|---9---------||-9--7-5-2-|| Go straight to
E|-7-----------|-7------------|-7-----------||----------|| the outro.

PRE-OUTRO (3:40) - Played twice - Palm muted

e|-----------------------------------------------------------------|
B|-----------------------------------------------------------------|
G|-4-4-4-4-4-4-4-4-7-7-7-7-7-7-7-7---------------------------------|
D|-4-4-4-4-4-4-4-4-7-7-7-7-7-7-7-7-5-5-5-5-5-5-5-5-2-2-2-2-2-2-2-2-|
A|-2-2-2-2-2-2-2-2-5-5-5-5-5-5-5-5-5-5-5-5-5-5-5-5-2-2-2-2-2-2-2-2-|
E|---------------------------------3-3-3-3-3-3-3-3-0-0-0-0-0-0-0-0-|

OUTRO (3:56) - Played twice - Wah pedal

e|------------------------------------|---------------------------------|
B|------------------------------------|---------------------------------|
G|------------------------------------|---------------------------------|      *The outro is basically just the
D|--------2-4-2------------2----------|--------2-4-5-4-5-7-5-4-2-4-4-4--|      first part of the solo played over
A|--2-4-5-------5-4--2-4-5---5-4-2-0--|--2-4-5--------------------------|      top of the chorus.
E|------------------------------------|---------------------------------|

   G
e|-3~-|
B|-3~-|
G|-4~-|
D|-5~-|    *Let ring
A|-5~-|
E|-3~-|

Thanks to ACDCGuitarist09 for the previous tab!

If you have any questions, you can e-mail me at matthew_maier@hotmail.com

Please remember to rate my tab!
Show more