• Song:

    Be yourself

  • Artist:

    Audioslave

  • Album:

    Live IN Washington DC -...

Artist: Audioslave
Song: Be Yourself
Album: Unknown

e:---7------5---9---10---12---9---10---9---10----
b:------7----------------------------------------
g:-----------------------------------------------
d:-----------------------------------------------
a:-----------------------------------------------
E:-----------------------------------------------


e:---7------5---9---10---12---9---10---9---10----
b:------7----------------------------------------
g:-----------------------------------------------
d:-----------------------------------------------
a:-----------------------------------------------
E:-----------------------------------------------


e:---7------5---9---10---12---9---10---9---10----
b:------7----------------------------------------
g:-----------------------------------------------
d:-----------------------------------------------
a:-----------------------------------------------
E:-----------------------------------------------

Rhythem Guitar

Bm Bm Bm Bm
D  D  D  D
G  G  G  G
Em Em Em Em
Show more