• Song:

    Be yourself

  • Artist:

    Audioslave

  • Album:

    Live IN Washington DC -...

Band: Audioslave
Guitarist: Tom Morello
Album: Out Of Exile
Song: Be Yourself

b=bend up
bd=bend down
h=hammer on
p=pull off
/=slide down
\=slide up
x=palm mute
~=vibrato


Intro x2
e|-2-----------------------2~-|
B|-3--2h3p2-------------2-----|
G|-4-----------------0--------|
D|-4--------------0-----------|
A|-2-----------2--------------|
E|-----------3----------------|

Main Riff/Verse x3
e|----|--------------------------------------|
B|-12~|----------/14-15~--17\14~ 15-\10--12~-|
G|----|-11-14~-------------------------------|
D|----|--------------------------------------|
A|----|--------------------------------------|
E|----|--------------------------------------|
                                                                                             *ONLY play the first note only the first time
e|--------------------------||---------------|           *DONT play the last section the last time, go straight to the pre chorus
B|----------/14-15~--14/10--||------14/12~---|           
G|-11-14~-------------------||--11-----------|
D|--------------------------||---------------| 
A|--------------------------||---------------|  
E|--------------------------||---------------| 
      
1st Pre-Chorus
e|-2-2-2-2-2-2-2-2-2-2-2-2-2-2-2-2-|
B|-3-3-3-3-3-3-3-3-3-3-3-3-3-3-3-3-|
G|-4-4-4-4-4-4-4-4-4-4-4-4-4-4-4-4-|   *8 soft
D|-4-4-4-4-4-4-4-4-4-4-4-4-4-4-4-4-|   *8 getting louder
A|-2-2-2-2-2-2-2-2-2-2-2-2-2-2-2-2-|   *8 non-muted
E|---------------------------------|
   x x x x x x x x then get louder…

2nd Pre-Chorus
e|-2-2-2-2-2-2-2-2-|
B|-3-3-3-3-3-3-3-3-|
G|-4-4-4-4-4-4-4-4-|
D|-4-4-4-4-4-4-4-4-|
A|-2-2-2-2-2-2-2-2-|
E|-----------------|

Chorus
e|---------------------------------|
B|---------------------------------|
G|-4-4-4-4-4-4-4-4-7-7-7-7-7-7-7-7-|
D|-4-4-4-4-4-4-4-4-7-7-7-7-7-7-7-7-|
A|-2-2-2-2-2-2-2-2-5-5-5-5-5-5-5-5-|
E|---------------------------------|
                                                                         *In sets of 8
E|---------------------------------|         * B5-D5-G5-E5
B|---------------------------------|
G|---------------------------------|
D|-5-5-5-5-5-5-5-5-2-2-2-2-2-2-2-2-|
A|-5-5-5-5-5-5-5-5-2-2-2-2-2-2-2-2-|
E|-3-3-3-3-3-3-3-3-0-0-0-0-0-0-0-0-|

Solo (played with a huge wah)
e|----------------------------------------------------|
B|----------------------------------------------------|
G|----------------------------------------------------|
D|----------------------------------------------------|
A|------------7-9-7----------------------7------------|
E|-7--9--10---------10-9-------7--9--10----10-9-7-5--|

e|----------------------------------------------------|
B|----------------------------------------------------|
G|----------------------------------------------------|
D|-------------------------7---------------------------|
A|------------7-9-10-9-10----10-9-7-9-9-9-9------------|
E|-7--9--10----------------------------------------------|

e|-----------------------------|-|------------------------|
B|-----------------------------|x|-------7----------------|
G|---------------7-------------|3|---7-9---9-7-----------|
D|-7h9-9-9-9-9-----9-9-9-9-9--|-|-9-----------9-7--------|    
A|-----------------------------|-|------------------------|
E|-----------------------------|-|------------------------|

e|-------------------------|-|--------------------------|
B|-------------------------|x|--7--7-7-----7--7-7-7------|
G|-------------7h9-9-9-99-|2|--9b-9-9bd---9b-9-9-9bd----|              *The 99 In the 1st section is played real fast
D|-7h9-9-9-99-------------|-|---------------------------|              *In the 2nd section ONLY bend the 9 up
A|-------------------------|-|---------------------------|              (read the bottom of the page for more explanation)
E|-------------------------|-|-------------------------|

e|----------------------------------------------------|
B|----7bd------------------------------------------------|
G|-9b----(9)-7-9-7----------------------------------------|               *Bend up from 9 to 7 then back down without playing the 9
D|-----------------9-7----------------------------------|                   in the bracets
A|-----------------------------------------------------|
E|----------------------------------------------------|

Post-Solo
e|------------2-------|--|----------------|
B|--------------3-----|--|----------------|
G|--------4-------4---|x-|----------------|                *After every 3rd time through of the 14 play --9--7--5--
D|-----4------------4-|14|-----------------|
A|--2-----------------|--|------9--7--5---|
E|--------------------|--|-----------------|

Outro (played with a huge wah)
e|----------------------------------------------------|
B|----------------------------------------------------|
G|----------------------------------------------------|
D|----------------------------------------------------|
A|------------7-9-7----------------------7------------|
E|-7--9--10---------10-9-------7--9--10----10-9-7-5--|
                                                                                                                 *Play 2 times
e|-------------------------------------------|-----------|         *Vibrato only last time
B|-------------------------------------------|-----------|
G|------------------------------------------|-----------|
D|-------------------------7----------------|-----------|
A|------------7-9-10-9-10----10-9-7-9-9-9-9|~~~~~~~~~~|
E|-7--9--10---------------------------------|-----------|


Order:
Intro
Verse
1st Pre-Chorus
Chorus
Verse
2nd Pre-Chorus
Chorus
Solo
Post-Solo
Chorus
Outro

Explanation:
e|----------------------------|
B|--7--7-7-----7--7-7-7------|
G|--9b-9-9bd---9b-9-9-9bd----|             
D|---------------------------|
A|----------------------------|
E|-------------------------|

Play 7 and 9 together, only bend up 9, keep 9 up and play both again then realease the nine back down.
the second time, u play 7 and 9 twice when the 9 is bent up. get it?
If not email me on    Burnnnnn@hotmail.com

Thx, dont forget to rate it
Show more