• Song:

    Be yourself

  • Artist:

    Audioslave

  • Album:

    Live IN Washington DC -...

Song: Be Yourself
Band: Audioslave
Album: Out of Exile
Tuning: Standard

This is a great song by a great band, and I feel this tab is very accurate.  Enjoy!

*Please note:  The guitar has a capo on the second fret.  The notes are NOT in relation to the capo  (i.e. Fret 3 is still fret 3)

Legend:

h  =  hammer on
p  =  pull off
pm =  palm mute
/  =  slide
x  =  muted string


Intro: Clean ; 0:00 - 0:18

e|--2-----------------------------------------------2-----
b|--3-------------2h3p2--------------------------3--------
g|--4-----------------------------------------4-----------
d|--4--------------------------------------4--------------
a|--2-----------------------------------2-----------------
e|-----------------------------------3--------------------


Verse: Clean , Delay ; 0:19 - 1:06 , 1:35 - 2:04 , 4:14 - 4:43

e|--7------2-5------9--10------12/9-----10--5--7----2-5-----9--10-----9/5---2--9/----
b|-----------------------------------------------------------------------------------
g|-----------------------------------------------------------------------------------
d|-----------------------------------------------------------------------------------
a|-----------------------------------------------------------------------------------
e|-----------------------------------------------------------------------------------


Pre-Chorus 1: Clean ; 1:06 - 1:09

e|-----------------------------------
b|-5-5-5-5-5-5-5-5-5-5-5-5-5-5-5-5---
g|-4-4-4-4-4-4-4-4-4-4-4-4-4-4-4-4---
d|-2-2-2-2-2-2-2-2-2-2-2-2-2-2-2-2---
a|-----------------------------------
e|-----------------------------------
pm . . . . . . . . 


Chorus: Clean , Strumming ; 1:10 - 1:26 , 2:09 - 2:41 , 3:59 - 4:43

e|-2-2-2---2---2-2-2---------------------3-3-3---3---3-3-3--7-7-7---7---7-7-7---
b|-3-3-3---3---3-3-3--7-7-7---7---7-7-7--3-3-3---3---3-3-3--8-8-8---8---8-8-8---
g|-4-4-4---4---4-4-4--7-7-7---7---7-7-7--4-4-4---4---4-4-4--9-9-9---9---9-9-9---
d|-4-4-4---4---4-4-4--7-7-7---7---7-7-7--5-5-5---5---5-5-5--9-9-9---9---9-9-9---
a|-2-2-2---2---2-2-2--5-5-5---5---5-5-5--5-5-5---5---5-5-5--7-7-7---7---7-7-7---
e|---------------------------------------3-3-3---3---3-3-3----------------------


Pre-Verse: Clean, Delay ; 1:27 - 1:34

e|-7----2-5-----9--10-----9/5---2--9/---
b|--------------------------------------
g|--------------------------------------
d|--------------------------------------
a|--------------------------------------
e|--------------------------------------


Pre-Chorus: Clean ; 2:05 - 2:08

e|-2-----------------7-7-7-7-7-7-7-7---
b|-3-----------------8-8-8-8-8-8-8-8---
g|-4-----------------9-9-9-9-9-9-9-9---
d|-4-----------------9-9-9-9-9-9-9-9---
a|-2-----------------7-7-7-7-7-7-7-7---
e|-------------------------------------


Solo: Distortion , Wah ; 2:42 - 3:14

e|--------------------------------------------------------------------------------------------------
b|--------------------------------------------------------------------------------------------------
g|--------------------------------------------------------------------------------------------------
d|--------------------------------------------------------------------------------------------------
a|-2--4--5--7--9--7--5--4--2--4--5--7--5--4--2----2--4--5--7--9--10--9--10--12--10--9--7--9--9--9--9
e|---------------------------------------------5----------------------------------------------------

e|------------------------------------------------------------------------------------------------
b|---------------------------------------------------------------------------------10-------------
g|----------------------------------------------------------------------------9-11----11-9--------
d|-7h9--9-9-99-12p9-9-9-99-7h9-9-9-99-12p9-9-9-99-7h9--9-9-99-12p9-9-9-99--12--------------12-9---
a|------------------------------------------------------------------------------------------------
e|------------------------------------------------------------------------------------------------

e|---------------------------------------------------------------------------------
b|-----------------------------------------------9b--9--9b--9--9b--9-7-9-7---------
g|-------------7h9-9-9-99------------7h9-9-9-99----------------------------9-7-----
d|-7h9-9-9-99-------------7h9-9-9-99-------------------------------------------9---
a|---------------------------------------------------------------------------------
e|---------------------------------------------------------------------------------


Bridge 1: Clean ; 3:15 - 3:41

e|-------3------------5------------2-------2---2---2---
b|---------3------------5------------3-----2---2---2---
g|-----------4------------6------4-----4---3---3---3---
d|-----5------------7----------4-----------4---4---4---
a|---5------------7----------2-------------4---4---4---
e|-3------------5--------------------------2---2---2---


Bridge 2: Clean ; 3:42 - 3:58

e|-------------------------------------------------------------------
b|-3-3-3-3-3-3-3-3-7-7-7-7-7-7-7-7-----------------8-8-8-8-8-8-8-8---
g|-4-4-4-4-4-4-4-4-7-7-7-7-7-7-7-7-4-4-4-4-4-4-4-4-9-9-9-9-9-9-9-9---
d|-4-4-4-4-4-4-4-4-7-7-7-7-7-7-7-7-5-5-5-5-5-5-5-5-9-9-9-9-9-9-9-9---
a|-2-2-2-2-2-2-2-2-5-5-5-5-5-5-5-5-5-5-5-5-5-5-5-5-7-7-7-7-7-7-7-7---
e|---------------------------------3-3-3-3-3-3-3-3-------------------
pm . . . . . . . . . . . . . . . . . . . . . . . . . . . . . . . .


Final Chorus (Played over Chorus and Verse Riffs): Distorted , Wah ; 3:59 - 4:43

e|--------------------------------------------------------------------------------------------------
b|--------------------------------------------------------------------------------------------------
g|--------------------------------------------------------------------------------------------------
d|--------------------------------------------------------------------------------------------------
a|-2--4--5--7--9--7--5--4--2--4--5--7--5--4--2---2--4--5--7--9--10--9--10--12--10--9--7--9--9--9--9-
e|---------------------------------------------5----------------------------------------------------

e|--------------------------------------------------------------------------------------------------
b|--------------------------------------------------------------------------------------------------
g|--------------------------------------------------------------------------------------------------
d|--------------------------------------------------------------------------------------------------
a|-2--4--5--7--9--7--5--4--2--4--5--7--9--7--5--4--2--4--5--7--9--10--9--10--12--10--9--7--9--9--9--
e|--------------------------------------------------------------------------------------------------

e|----2---
b|----3---
g|----4---
d|----4---
a|-9--2---
e|--------
Show more