• Song:

    Be yourself

  • Artist:

    Audioslave

  • Album:

    Live IN Washington DC -...

Audioslave- Be Yourself (4:39)
  Audioslave rocks, I like just about every song from them.
  This is just my 2nd tab, so im not sure if its good or not.
		
 *Intro (Bass Comes in at 0:17) This is played almost the whole song
G----------------------------------------|
D----------------------------------------|
A-------------5(X5)----------------7777--| X25 
E----7(X5)-55-------55--3(X8)-0000-------|


(3:12-3:18 No Bass)
	
	(3:18)
G-----------------------------------|
D-----------------------------------|
A--------------------7--5--3--------| X4
E-7--7777---9-999-7-7---------7-----|

	(3:40-3:56: No Bass)
	
	(3:56-End)
G----------------------------------------|
D----------------------------------------|
A-------------5(X5)----------------7777--| X4
E----7(X5)-55-------55--3(X8)-0000-------|
Show more