• Song:

    Be yourself

  • Artist:

    Audioslave

  • Album:

    Live IN Washington DC -...

Tabbed By:Eric Vezeau (Vezy)
Audioslave-Be Yourself
Standard Tunning: E A D G

| /  slide up
| r  let ring

Intro (x2)

G|-----------------|
D|-----------------|
A|-2r--------------|
E|---------3r------|

Main Riff (x5)

G|-----------------------------------------------------------------|
D|---------------------------------------------------------2-2-2-2-|
A|-2-2-2-2-2-2-2-0-5-5-5-5-5-5-5-----------------------------------|
E|-------------------------------5-3-3-3-3-3-3-3-3-0-0-0-0---------|

Pre-Chorus (x1)

G|---------------------------------------------------------|
D|---------------------------------------------------------|
A|-2-2-2-2-2-2-2-0-5-5-5-5-5-5-5---------------------------|
E|-------------------------------5-3-3-3-3-3-3-3-3-0-0-0-0-|

|-------------------------|
|-------------------------|
|-------------------------|
|-0-0-0-0-0-0-0-0-0-0-0-0-|

Chorus (play Main Riff x2)

Second Verse (play Main Riff x5)

Pre-Chorus Variation (x1)

G|---------------------------------------------------------------|
D|---------------------------------------------------------------|
A|-2-2-2-2-2-2-2-0-5-5-5-5-5-5-5---------------------------------|
E|-------------------------------5-3r------------0-0-0-0-0-0-0-0-|

Second Chorus (play Main Riff x4)

Solo (x4)

G|-----------------------------------------------------------------|
D|---------------------------------------------------------2-2-2-2-|
A|-2-2-2-2-2-2-4-4-5-5-5-5-5-5-5-----------------------------------|
E|-------------------------------5-3-3-3-3-3-3-3-3-0-0-0-0---------|

Bridge

G|-----------------------------------------------------------------|
D|-------------------------------------------------4-4-4-2-2-2-0-0-|
A|---------------------------------2-2-2-2-2-2-2-2-----------------|
E|-3-3-3-3-3-3-3-3-5-5-5-5-5-5-3-5---------------------------------|

|-----------------------------------------------------------------|
|-------------------------------------------------4-4-4-2-2-2-0-0-|
|---------------------------------2-2-2-2-2-2-2-2-----------------|
|-3-3-3-3-3-3/7-7-5-5-5-5-5-5/9-9---------------------------------|

|-----------------2-2-2-2-2-2/6-6-4-4-4-4-4-4-4-4-----------------|
|-5-5-5-5-5-5-0-----------------------------------4-4-4-2-2-2-0-0-|
|---------------4-------------------------------------------------|
|-----------------------------------------------------------------|

|-------------2/4-2r--------2/6-----------------------------------|
|-5r--------------------------------------------------------------|
|-----------------------------------------------------------------|
|-----------------------------------------------------------------|

Last Chorus (x2)

G|-4-4-4-4-4-4-4-4-7-7-7-7-7-7-7-7---------------------------------|
D|---------------------------------5-5-5-5-5-5-5-5-5-5-5-5-5-5-5-5-|
A|-----------------------------------------------------------------|
E|-----------------------------------------------------------------|

Main Riff (x4)

End on:

G|---|
D|---|
A|---|
E|-3-|
Show more