• Song:

    Around The World

  • Artist:

    Audiosmog

Band:  Audiosmog  www.audiosmog.com
Song:  Around The World
Album: Top Of The Rocks

Tabbed by: MarkL (colonelsatkov@hotmail.com)
           

INTRO
  Am        Em        F         G
e|-0-----0-|---------|---------|---------|
B|-----1---|-0-----0-|-1-----1-|-3-----3-|
G|---2-----|-----0---|-----2---|-----4---| 
D|---------|---2-----|---3-----|---5-----|
A|---------|---------|---------|---------|
E|---------|---------|---------|---------|

CHORUS
   4x 4x 4x 4x
e|------------|
B|------------|
G|------------|
D|-7--2--3--5-|
A|-7--2--3--5-| 
E|-5--0--1--3-|

END-CHORUS 
   4x 4x 4x 4x
e|------------|
B|------------|
G|------------|
D|-8--3--4--6-|
A|-8--3--4--6-| 
E|-6--1--2--4-|

ORDER:  INTRO   6x
        CHORUS 10x
        INTRO   4x
        CHORUS 10x
        INTRO   4x
    END-CHORUS 12x
Show more