audiovent - beautiful addiction

5 stringed bass

intro

|----------------|---------------|
|----------------|---------------|
|----------------|---------------|
|-7-7777---------|-7-7777--------|
|-------8--8--35-|-------8--8--3-|

|----------------|-------------|
|----------------|-------------|
|----------------|-------------|
|-7-7777---------|-7-7777------|
|-------8--8--35-|-------8--8--|

verso

|-----------------------|--------------------------|
|-9-12119------12----14-|-9-12119------12----14/24-|
|--9--------------------|--9-----------------------|
|-----------10----------|-----------10-------------|
|---------8-------------|---------8----------------|

pre coro

|-----------------------|
|-----------------------|
|-----------------------|
|-777-7-77---333-3-55-5-|
|----9-9--9-----5-5--7--|

coro

|----------------|---------------|
|----------------|---------------|
|----------------|---------------|
|-7-7777---------|-7-7777--------|
|-------8--8--35-|-------8--8--3-|

|----------------|-------------|
|----------------|-------------|
|----------------|-------------|
|-7-7777---------|-7-7777------|
|-------8--8--35-|-------8--8--|

coro antes de middle

|----------------|---------------|
|----------------|---------------|
|----------------|---------------|
|-7-7777---------|-7-7777--------|
|-------8--8--35-|-------8--8--3-|

|----------------|---------------------|
|----------------|---------------------|
|----------------|---------------77-55-|
|-7-7777---------|-7-7777--------------|
|-------8--8--35-|-------8--8--5-------|

middle

|----------------------------------|
|----------------------------------|
|-----------------------------5533-|
|-6666666688888888-----------------|
|-----------------222222222222-----|

|----------------------------------------------|
|----------------------------------------------|
|----------------------------------------------|
|-6666666688888888-----------------------------|
|-----------------1010101010101010101010101010-|

solo

|----------------|---------------|
|----------------|---------------|
|----------------|---------------|
|-7-7777---------|-7-7777--------|
|-------8--8--35-|-------8--8--3-|

|----------------|-------------|
|----------------|-------------|
|----------------|-------------|
|-7-7777---------|-7-7777------|
|-------8--8--35-|-------8--8--|

gracias a los aroma a marberia por hacerme conocer el sentido de la musica verdadera...

doky 2005
Show more