audiovent - looking down

bass tab

by: doky
taquilleros_de_sudamerica_maroyu_el_grupo_tropical_del_momento@hotmail.com

5-stringed bass
G D A E B

intro

|----------------------|-----------------------|
|----------------------|-----------------------|
|-----5555555----------|-----55555555----------|
|---6--------666666666-|---6---------444444444-|
|-3--------------------|-3---------------------|

verso

|---------|-------|---------|-------|
|---------|-------|---------|-------|
|--55-5-5-|-----3-|--55-5-5-|-------|
|---------|-6-1---|---------|-1---3-|
|-3--3-3--|-------|-3--3-3--|---1---|

pre-coro

|-------------------------------------------|
|-------------------------------------------|
|-11111--11111/(10)-------------------------|
|------------------(10)\0-66666--6666688888-|
|-------------------------------------------|

coro

|----------------------------------------------------|
|----------------------------------------------------|
|--------------555555555---------555555555-----------|
|-------66666-2---------4444446-2---------44444444-6-|
|-333333---------------------------------------------|

middle

|-------------|
|-------------|
|-------------|
|-------------|
|-44434-44434-|

|---------------|
|---------------|
|---------------|
|-0/6666-0/6666-|
|---------------|

|------------------------------------|
|------------------------------------|
|------------------------------------|
|------88888888/202020202020202020\0-|
|-17\0-------------------------------|


la cancion me parece que es un poco mas compleja pero ahi esta lo basico.
quiero ademas agradecer a mi hermano Rene, a mi hermana Gabriela a mi papa Rene y a mi mama Magda. gracias

doky 2006
Show more