Band- Audiovent
Song- Numb

Verse x4

G ----------------------|
D ------5-6\-------5-6\-|
A -3333-------1111------|
E ----------------------|

G -----------------3---|
D ------5-6\---------5-|
A -3333------1111------|
E ---------------------|

Pre-Chorus

(No Bass)

Chorus x2

G ----------------|
D ----------------|
A ----------------|
E -0-0-00-00000-0-|

G ----------------|
D ----------------|
A -3-3-33-33333-3-|
E ----------------|

G ----------------|
D ----------------|
A -0-0-00-00000-0-|
E ----------------|

G ---------------------|
D -----------0000-0000-|
A -3333-3333-----------|
E ---------------------|

Verse x4

G ----------------------|
D ------5-6\-------5-6\-|
A -3333-------1111------|
E ----------------------|

G -----------------3---|
D ------5-6\---------5-|
A -3333------1111------|
E ---------------------|

Pre-Chorus
(No Bass)

Chorus x2

G ----------------|
D ----------------|
A ----------------|
E -0-0-00-00000-0-|

G ----------------|
D ----------------|
A -3-3-33-33333-3-|
E ----------------|

G ----------------|
D ----------------|
A -0-0-00-00000-0-|
E ----------------|

G ---------------------|
D -----------0000-0000-|
A -3333-3333-----------|
E ---------------------|

Bridge x2

G ---------------------|
D ---------------------|
A -2222--22--444--0000-|
E ---------------------|

G ------------------------|
D ------------------------|
A -00--2222--22--444------|
E -------------------0000-|

Pre-Chorus

(No Bass)

Chorus - to end

G ----------------|
D ----------------|
A ----------------|
E -0-0-00-00000-0-|

G ----------------|
D ----------------|
A -3-3-33-33333-3-|
E ----------------|

G ----------------|
D ----------------|
A -0-0-00-00000-0-|
E ----------------|

G ---------------------|
D -----------0000-0000-|
A -3333-3333-----------|
E ---------------------|
Show more