Audiovent - Only human

bass tab

by : doky 2007
taquilleros_de_sudamerica_maroyu_el_grupo_tropical_del_momento@hotmail.com

5-stringed bass
G D A E B

   INTRO
G-|------------|---|---------------------------|
D-|------------|---|---------------------------|
A-|------------|---|----------------------3222-|
E-|------------|---|-4-1-1-1-41-111-44444------|
B-|-1-3-333333-|---|---------------------------|
                 +                                                             

   VERSO
G-|---------------------|
D-|---------------------|
A-|---------------------|
E-|-----------4-444-4-4-|
B-|-6-666-6-4-----------|
        
                                                                       
   CORO
G-|-------------------------------|-----------------------|
D-|-------------------------------|-----------------------|
A-|-------------------------------|-----------------------|
E-|-41-1111---------4-4444-6-6666-|-41-1111---------------|
B-|---------22-2222---------------|--------22-2222-4-4444-|
                                                                              

   MIDDLE
G-|-----------------------------|
D-|-----------------------------|
A-|-----------------------------|
E-|-222222-444444-555555-777777-|
B-|-----------------------------|

Le mando salutaciones a La Carla Guzman de QB 2004 que tan este es que
ha entrado a odonto y luego lo ha dejado no se porque, asi de la nada
y ahora no hay, desaparecio ooooye, seguro se va a ir a estudiar comercio
exterior en el interior, uutha

doky2007
Show more