audiovent - remedy

bass tab

by : doky 2006
taquilleros_de_sudamerica_maroyu_el_grupo_tropical_del_momento@hotmail.com

5-stringed bass
G D A E B

intro

|-------------------------------:---|
|---------------------1112-22222:---|
|-2222------------2222----------:---|
|-----2223-3333322--------------:22-|
|-------------------------------:---|

verso 1

|--------------|------------:--|
|--------------|----------0-:0-|
|-2-2----------|-2-2--------:--|
|----3-32-2----|----3-32-2--:--|
|----------3-3-|------------:--|

verso 2

|------------------|
|------------------|
|-2222--------4444-|
|-----33332222-----|
|------------------|

break
		   en el 2do break se aumenta:	
|----------------|----------|
|----------------|----------|
|-2-2------------|----------|
|----3-32-2222222|-22222222-|
|----------------|----------|

coro

|------------------|---------------:---|
|------------------|---------------:---|
|-2222-------------|-2222----------:---|
|-----2223-3333322-|---------------:22-|
|------------------|-----4445-55555:---|

middle

|-----------------|
|-----------------|
|-----------------|
|-----------3-333-|
|-0--0-0-00-------|

|------------------|
|------------------|
|------------------|
|------------------|
|-00000000········-|

fin 

|-----------------|
|-----------------|
|-----------------|
|-2-2-2-2---------|
|---------0-------|


una cancion muy buena.
quiero mandar saludos a los cuates que lograron llenar mi slam 2004 del colegio... a
el Alvaro el jesuita, al David el muelas, al Manuel el gato, a la Daniela la dany, a
la Andrea la andy pandy gumy, al samir el london 5 lenguas, a la Grace la nema, al
Javier el goro, al Sergio el gott y a Andrea la andy pandy gummy por llenar otra vez,
utha cheeee.
Show more