Audiovent - Stalker

Bass Tab

5 Stringed bass

Por: Doky 2006

taquilleros_de_sudamerica_maroyu_el_grupo_tropical_del_momento@hotmail.com

intro:

|-------------|
|-------------|
|-------------|
|-------00-00-|
|-00-33-------|

verso:

|----------------|---------------------|----------------|---------------------|
|----------------|---------------------|----------------|---------------------|
|----------------|---------------------|-------55-------|---------------------|
|-77--77--33--00-|-77--77--33--00/12\0-|-77--77--33--00-|-77--77--33--00/12---|
|----------------|---------------------|----------------|---------------------|

coro:

|-------------|
|-------------|
|-------------|
|-------00-00-|
|-00-33-------|

|--------------|
|------2222222-|
|--------------|
|--------------|
|-00-33--------|

middle:

|------------------|
|------------------|
|------------------|
|-2222222255555555-|
|------------------|

|-------------------------|
|-------------------------|
|------2---2-------5---5--|
|-2-2-2-2-2-2-5-5-5-5-5-5-|
|-------------------------|

|-------------------------|
|-------------------------|
|------2---2--------------|
|-2-2-2-2-2-2-55555555555-|
|-------------------------|

Break:

|------|
|------|
|------|
|------|
|-12\0-|

parte final del ultimo coro:

|-------------------|
|-------------------|
|-------------2-----|
|-------00-00-------|
|-00-33-------------|

Un gran saludo a mi primera banda que no tenia nombre pero, saludos a:
Danilo Flores: Vocal y llokalla
Arnaldo Gonzales: Guitarrista y solista
Jorge Avila: Baterista y Cumbiero descarriado
Show more