audiovent - the energy
por Doky 2004

5 stringed bass
G D A E B


intro

|----------------------------------|
|-2222222222222222-----------------|
|-----------------3333333333333333-|
|----------------------------------|
|----------------------------------|

verso A

|--------------------------|
|--------------------------|
|-----------------0-0-3333-|
|-0-00-33-333--------------|
|-------------3-33---------|

verso B

|-------------------------------|
|-------------------------------|
|------------------------12--12-|
|-0-00----------3-33-5-5/--12---|
|------3-3-3333-----------------|

pre coro

|-----------------------|
|-----------------------|
|-----------------------|
|-7-7-5-5-3-3-1-1-1h3p1-|
|--7---5---3---1--------|

|-----------------|
|-----------------|
|-----------------|
|-7-7-5-5-3-3-7---|
|--7---5---3------|

coro

|--------------------------|
|--------------------------|
|--------------------------|
|-0-0-0-0310-535-333-13431-|
|--3-3-3-------------------|

|----------------------------|
|----------------------------|
|-----------3333333355555555-|
|-0-0-0-0310-----------------|
|--3-3-3---------------------|

verso variacion

|-------|
|-------|
|-3--3--|
|-------|
|-------|

|-----------------------------------|
|-----------------------------------|
|-----------------------------------|
|-0-00--------3h5-3h5-3h5-3h5-55\33-|
|------33-3333----------------------|

verso variacion 2

|----------------------------|
|----------------------------|
|-------------------0-0-3333-|
|-0-00-33-3333---------------|
|--------------3-33----------|

|-----------------------------|
|-----------------------------|
|-----------------------------|
|-0-00----------3-33-5-5-5555-|
|------3-3-3333---------------|

outro

|----------------------------------77p5-------------------------|
|--------------------------------------7p5----------------------|
|-3333333355555555-3333333355555555--------3333333355555555-----|
|----------------------------------------------------------0----|
|---------------------------------------------------------------|


gracias a mis amigas luty, wayra y yanina por haber formado un grupo
thrash en el curso... son muy thrashers!!!

doky 2004
Show more