Audiovent - Underwater silence
bass tab

4 stringed bass

G D A E

por: doky
taquilleros_de_sudamerica_maroyu_el_grupo_tropical_del_momento@hotmail.com



intro/verso

|---------------|---------------|-------------|--------|
|---------------|---------------|-------------|--------|
|--------10-11\-|--------10-11\-|--------10---|--------|
|-8888/10-------|-6666/10-------|-8888/10--11-|-6666\0-|

pre-coro

|---------------------------------------------------|
|---------------------------------------------------|
|-7---------7---------0---0-----------6666/14141414-|
|------0---------0------------88888888--------------|

coro:

|------------------------------------------2/4-2------------------------|
|-----------------------------------------------------------------------|
|------------77-55-33-3333-3-3-33-22-00-000------000-22-333333355555555-|
|-00-0000-007-----------------3-----------------------------------------|

Middle

|-------------------------------------|
|-------------------------------------|
|-------------------7777757-----------|
|-7777757-x444-x333---------x333-x333-|

|-------------------------------------|
|-------------------------------------|
|-------------------------------------|
|-7777757-x444-x333-55555555/88888888-|

Final

|--------------------------------------------------------------------------|
|--------------------------------------------------------------------------|
|-------------------3-3-3333-3-3-33333-0-0-0000-0-0-0000/33333333/55555555-|
|-0-0-0000-0-0-00000-------------------------------------------------------|

Cancion dedicaca para los integrantes de mi grupo "The Ignation Dollar",
ellos son: Adri - Bateria   Goro - Guitarra/Voz.
Show more