• Song:

    Carving And Searching

  • Artist:

    Audrey

  • Album:

    The Fierce And The Long...

-----------------------------------------------------------------------------
                         Audrey - Carving And Searching
-----------------------------------------------------------------------------

Tabbed by: Interludez

Email:Superduperboy_94@hotmail.com

Tuning:Standard

My first time trying to tab out, well hope you guys get any help from this :)

e|-------------------------------------------------------|
B|--------7----------7-----------------------------------|
G|-2/4-4----4--2/4-----4~/0~---0-4-0------0-4-0------0-4~|
D|---------------------------4-------4--4-------4--4-----|  Repeats a few
A|-------------------------------------------------------|    times
E|-------------------------------------------------------|

e|-------------------------------------------------------|
B|--8--8-10-12-10-8--8-10-12-8---------------------------|
G|-------------------------------------------------------|
D|-------------------------------------------------------| Repeats a few
A|-------------------------------------------------------|   times
E|-------------------------------------------------------|


e|-----8-----8-----8-----------10----8-----7------------------------------|
B|--10----10----10----10----10----10----10--------8----8----8-------------|
G|---------------------------------------------9----9----9----9-----------|
D|------------------------------------------------------------------------|
A|------------------------------------------------------------------------|
E|------------------------------------------------------------------------|
The last part has some variations which you can explore yourself or if u wanna make a 
of your own twist to it..
Show more