• Song:

    Carol Of The Bells

  • Artist:

    August Burns Red

  • Album:

    August Burns Red Presen...

Carol Of The Bells
August Burns Red
standard 5 string tuning BEADG
G|--------------------------------------------------------------|
D|--------------------------------------------------------------|
A|--------------------------------------------------------------|
E|--------------------------------------------------------------|
B|-13~-----------11~---------------9~---------------8~----------|


G|---------------------------------------------------------|
D|---------------------------------------------------------|
A|---------------------------------------------------------|
E|---------------------------------------------------------|
B|-13-(x12)-------11-(x12)-------9-(x12)-------8-(x12)-----|

G|---------------------------------------------------------|
D|---------------------------------------------------------|
A|---------------------------------------------------------|
E|---------------------------------------------------------|
B|-13-----------8---------------6~---------------1~--------|

G|----------------------------------------|
D|--------0h1h0------------0h1h0----------|
A|---2-3----------3----2-3----------3-----|
E|-3------------------3-------------------|
B|----------------------------------------|

G|--------------------------------------------------------------|
D|--------------------------------------------------------------|
A|--------------------------------------------------------------|
E|--------------------------------------------------------------|
B|-13~-----------11~---------------9~---------------8~----------|

G|--------------------------------------------------------------|
D|--------------------------------------------------------------|
A|--------------------------------------------------------------|
E|-13~-----------11~---------------9~----------------------8~---|
B|--------------------------------------------------------------|
 

G|------------------------------------------|
D|--------0h1h0------------0h1h0------------|
A|---2-3----------3----2-3----------3-------|
E|-3------------------3---------------------|
B|------------------------------------------|

*Breakdown*
G|-------------------------------------------------------|
D|-------------------------------------------------------|
A|-------------------------------------------------------|
E|-------------------------------------------------------|
B|-1-111-11111-11111-111-11111-11111-111-11111-11111-----|

G|----------------------------------------------|
D|------------0--1------------------------------|
A|-----2--3-------------------------------------|
E|--3-------------------------------------------|
B|------------------------------1--1------------|

G|--------------------------------------------------------------------|
D|--------0h1h0------------0h1h0--------------------------------------|
A|---2-3----------3----2-3----------3---------------------------------|
E|-3------------------3-----------------------------18/---------------|
B|--------------------------------------------------------------------|

G|--------------------------------------------------------------------|
D|--------------------------------------------------------------------|
A|--------------------------------------------------------------------|
E|--------------------------------------------------------------------|
B|-13~-----------11~---------------9~---------------8~----------------|

G|--------------------------------------------------------------------|
D|--------------------------------------------------------------------|
A|--------------------------------------------------------------------|
E|--------------------------------------------------------------------|
B|-1~~~~~-------------------------------------------------------------|
Show more