• Song:

    Your Little Suburbia In Ruins

  • Artist:

    August Burns Red

sponsored links
Your Little Suburbia Is In Ruins Tab by August Burns Red


Artist- August Burns Red
Song- Your little suburbia is in ruins
Album- Thrill seeker

  I did not tab this song, it is on august burns red website under media.
Most people dont have power tab so i took this and submitted it.
So this is 100% correct  Enjoy :) This is only the intro though
D -------------------------------------------------------------------|
A -------------------------------------------------------------------|
F -------------------------------------------------------------------|
C --7---8--0--7----8--000--------6-7----8--0--7---8--0-------6-7---8-|
G ----5----0-----5----000--7-8-5------5----0----5----0-7-8-5-----5---|
C ---------0----------000------------------0---------0---------------|


D -----------------------------------------------------------------|
A -----------------------------------------------------------------|
F -----------------------------------------------------------------|
C 0-7---8--000--------6-7---8--0--7---8--0--------6-7------------7-|
G 0---5----000--7-8-5-----5----0----5----0--7-8-5------8-7-5-1-4---|
C 0--------000-----------------0---------0-------------------------|


FUN PART!
D -----------------------------------------------------------------|
A -----------------------------------------------------------------|
F -----------------------------------------------------------------|
C ---------------------------0-5-8-0-5-8---------------------------|
G -0-5-8-0-5-8--0-4-7-0-4-7---------------0-5-8-0-5-8--------------|
C -----------------------------------------------------------------|

D -----------------------------------------------------------------|
A -----------------------------------------------------------------|
F -----------------------------------------------------------------|
C ---------------------------0-5-8-0-5-8---------------------------|
G -0-5-8-0-5-8--0-4-7-0-4-7---------------0-5-8-0-5-8--------------|
C -----------------------------------------------------------------|

D -----------------------------------------------------------------|
A -----------------------------------------------------------------|
F --0-5-8-0-5-8----------------------------------------------------|
C ----------------0-5-8-0-5-8--------------------------------------|
G ------------------------------0-4-7-0-4-7--0-5-8-0-5-8-----------|
C -----------------------------------------------------------------|

D -----------------------------------------------------------------|
A -----------------------------------------------------------------|
F --0-5-8-0-5-8----------------------------------------------------|
C ----------------0-5-8-0-5-8--------------------------------------|
G ------------------------------0-4-7-0-4-7--0-5-8-0-5-8-----------|
C -----------------------------------------------------------------|
Show more
sponsored links
sponsored links