• Song:

    Boston

  • Artist:

    Augustana

  • Album:

    You'll Disappear

sponsored links
----------------------------------------------------------------------------
                              Boston - Augustana
----------------------------------------------------------------------------

Tabbed by: William Heng
Email: xm1003@hotmail.com

Tuning: EADGBe

Part 1 (Intro/Verse, piano solo)

e|--0---0-3-0---0-|--0---0-3-0---0-|--0---0-3-0-3-7-|---3--0--3--8---|
B|1---1-------1---|0---0-------0---|1---1-----------|----------------|
G|----------------|----------------|----------------|----------------|
D|2---------------|2---------------|2---------------|----------------|
A|3---------------|2---------------|0---------------|----------------|
E|----------------|----------------|----------------|----------------|

e|--0---0-3-0---0-|--0---0-3-0---0-|--0---0-3-0---0-|--0---0---0-----|
B|1---1-------1---|1---1-------1---|1---1-------1---|3---3---3---3---|
G|2---------------|----------------|2---------------|4---------------|
D|3---------------|2---------------|3---------------|5---------------|
A|----------------|3---------------|----------------|----------------|
E|----------------|----------------|----------------|----------------|

e|--0---0-3-0---0-|--0---0-3-0---0-|--0---0-3-0-3-7-|---3--0--3--8---|
B|1---1-------1---|0---0-------0---|1---1-----------|----------------|
G|----------------|----------------|----------------|----------------|
D|2---------------|2---------------|2---------------|----------------|
A|3---------------|2---------------|0---------------|----------------|
E|----------------|----------------|----------------|----------------|

e|--0---0-3-0---0-|--0---0-3-0---0-|--0---0-3-0---0-|--0---0---0-----|
B|1---1-------1---|1---1-------1---|1---1-------1---|3---3---3---3---|
G|2---------------|----------------|2---------------|4---------------|
D|3---------------|2---------------|3---------------|5---------------|
A|----------------|3---------------|----------------|----------------|
E|----------------|----------------|----------------|----------------|

e|--0---0-3-0---0-|--0---0-3-0---0-|--0---0-3-0-3-7-|---3--0--3--8---|
B|1---1-------1---|0---0-------0---|1---1-----------|----------------|
G|----------------|----------------|----------------|----------------|
D|2---------------|2---------------|2---------------|----------------|
A|3---------------|2---------------|0---------------|----------------|
E|----------------|----------------|----------------|----------------|                in the light of the sun,

e|--0---0-3-0---0-|--0---0-3-0---0-|--0---0-3-0---0-|--0---0---0-----|
B|1---1-------1---|1---1-------1---|1---1-------1---|3---3---3---3---|
G|2---------------|----------------|2---------------|4---------------|
D|3---------------|2---------------|3---------------|5---------------|
A|----------------|3---------------|----------------|----------------|
E|----------------|----------------|----------------|----------------|
  is there anyone?                  oh it has begun...

e|--0---0-3-0---0-|--0---0-3-0---0-|--0---0-3-0-3-7-|---3--0--3--8---|
B|1---1-------1---|0---0-------0---|1---1-----------|----------------|
G|----------------|----------------|----------------|----------------|
D|2---------------|2---------------|2---------------|----------------|
A|3---------------|2---------------|0---------------|----------------|
E|----------------|----------------|----------------|----------------|
               oh dear you look so lost,

e|--0---0-3-0---0-|--0---0-3-0---0-|--0---0-3-0---0-|----------------|
B|1---1-------1---|1---1-------1---|1---1-------1---|3---------------|
G|2---------------|----------------|2---------------|4---------------|
D|3---------------|2---------------|3---------------|5---------------|
A|----------------|3---------------|----------------|----------------|
E|----------------|----------------|----------------|----------------|
  eyes are red and tears are shed, this world you must've crossed...
  you said...

Part 2 (chorus 1)

e|0---0---0---0---|0---0---0---0---|0---0---0---0---|0---0---0---0---|
B|1---1---1---1---|0---0---0---0---|1---1---1---1---|1---1---1---1---|
G|----------------|----------------|----------------|----------------|
D|2---------------|2---------------|2---------------|2---------------|
A|3---------------|2---------------|0---------------|2---------------|
E|----------------|----------------|----------------|----------------|
  you don't know me, you don't even care, oh yeah... she said...

e|0---0---0---0---|0---0---0---0---|0---0---0---0---|0---------------|
B|1---1---1---1---|0---0---0---0---|1---1---1---1---|1---------------|
G|----------------|----------------|----------------|----------------|
D|2---------------|2---------------|2---------------|2---------------|
A|3---------------|2---------------|0---------------|2---------------|
E|----------------|----------------|----------------|----------------|
  you don't know me, you don't wear my chains... oh yeah... yeah...

Part 3 (Verse, percussion and bass in) 

e|--0---0-3-0---0-|--0---0-3-0---0-|--0---0-3-0-3-7-|---3--0--3--8---|
B|1---1-------1---|0---0-------0---|1---1-----------|----------------|
G|----------------|----------------|----------------|----------------|
D|2---------------|2---------------|2---------------|----------------|
A|3---------------|2---------------|0---------------|----------------|
E|----------------|----------------|----------------|----------------|

e|--0---0-3-0---0-|--0---0-3-0---0-|--0---0-3-0---0-|--0---0---0-----|
B|1---1-------1---|1---1-------1---|1---1-------1---|3---3---3---3---|
G|2---------------|----------------|2---------------|4---------------|
D|3---------------|2---------------|3---------------|5---------------|
A|----------------|3---------------|----------------|----------------|
E|----------------|----------------|----------------|----------------|

e|--0---0-3-0---0-|--0---0-3-0---0-|--0---0-3-0-3-7-|---3--0--3--8---|
B|1---1-------1---|0---0-------0---|1---1-----------|----------------|
G|----------------|----------------|----------------|----------------|
D|2---------------|2---------------|2---------------|----------------|
A|3---------------|2---------------|0---------------|----------------|
E|----------------|----------------|----------------|----------------|
                essential and appealed, 

e|--0---0-3-0---0-|--0---0-3-0---0-|--0---0-3-0---0-|--0---0---0-----|
B|1---1-------1---|1---1-------1---|1---1-------1---|3---3---3---3---|
G|2---------------|----------------|2---------------|4---------------|
D|3---------------|2---------------|3---------------|5---------------|
A|----------------|3---------------|----------------|----------------|
E|----------------|----------------|----------------|----------------|
  carry all your thoughts           across an open field,

e|--0---0-3-0---0-|--0---0-3-0---0-|--0---0-3-0-3-7-|---3--0--3--8---|
B|1---1-------1---|0---0-------0---|1---1-----------|----------------|
G|----------------|----------------|----------------|----------------|
D|2---------------|2---------------|2---------------|----------------|
A|3---------------|2---------------|0---------------|----------------|
E|----------------|----------------|----------------|----------------|
                when flowers gaze at you...

e|--0---0-3-0---0-|--0---0-3-0---0-|--0---0-3-0---0-|--0---0---0-----|
B|1---1-------1---|1---1-------1---|1---1-------1---|3---3---3---3---|
G|2---------------|----------------|2---------------|4---------------|
D|3---------------|2---------------|3---------------|5---------------|
A|----------------|3---------------|----------------|----------------|
E|----------------|----------------|----------------|----------------|
  (they're) not the only ones who cry when they see (you) you said...

Part 4 (chorus 1)

e|0---0---0---0---|0---0---0---0---|0---0---0---0---|0---0---0---0---|
B|1---1---1---1---|0---0---0---0---|1---1---1---1---|1---1---1---1---|
G|----------------|----------------|----------------|----------------|
D|2---------------|2---------------|2---------------|2---------------|
A|3---------------|2---------------|0---------------|2---------------|
E|----------------|----------------|----------------|----------------|
  you don't know me, you don't even care, oh yeah... she said

e|0---0---0---0---|0---0---0---0---|0---0---0---0---|0---------------|
B|1---1---1---1---|0---0---0---0---|1---1---1---1---|1---------------|
G|----------------|----------------|----------------|----------------|
D|2---------------|2---------------|2---------------|2---------------|
A|3---------------|2---------------|0---------------|2---------------|
E|----------------|----------------|----------------|----------------|
  you don't know me, you don't wear my chains... oh yeah...

  she said (I) think I'll go to bos-

Part 5 (Chorus 2, all guitar in)

e|0---0---0---0---|0---0---0---0---|0---0---0---0---|0---0---0---0---|
B|1---1---1---1---|0---0---0---0---|1---1---1---1---|1---1---1---1---|
G|----------------|----------------|----------------|----------------|
D|2---------------|2---------------|2---------------|2---------------|
A|3---------------|2---------------|0---------------|2---------------|
E|----------------|----------------|----------------|----------------|
  ton... (I) think I'll start a new life, (I) think I'll start it
  over, where no one knows my name, I'll get out of califor-

e|0---0---0---0---|0---0---0---0---|0---0---0---0---|0---------------|
B|1---1---1---1---|0---0---0---0---|1---1---1---1---|1---------------|
G|----------------|----------------|----------------|----------------|
D|2---------------|2---------------|2---------------|2---------------|
A|3---------------|2---------------|0---------------|2---------------|
E|----------------|----------------|----------------|----------------|
  nia, I'm tired of the weather, (I) think I'll get a lover and 
  fly em out to spain... (I) think I'll go to bos-

e|0---0---0---0---|0---0---0---0---|0---0---0---0---|0---0---0---0---|
B|1---1---1---1--3|0---0---0---0--1|1---1---1---1--0|1---1---1---1---|
G|----------------|----------------|----------------|----------------|
D|2---------------|2---------------|2---------------|2---------------|
A|3---------------|2---------------|0---------------|2---------------|
E|----------------|----------------|----------------|----------------|
  ton, (I) think that i'm just tired (I) think I need a new tow,
  to leave this all behind... (I) think I need a sun-

e|0---0---0---0---|0---0---0---0---|0---0---0---0---|0---0---0---0---|
B|1---1---1---1--3|0---0---0---0--1|1---1---1---1--0|1---1---1---1---|
G|----------------|----------------|----------------|----------------|
D|2---------------|2---------------|2---------------|2---------------|
A|3---------------|2---------------|0---------------|2---------------|
E|----------------|----------------|----------------|----------------|
  rise, I'm tired of the sunset, (I) hear it's nice in the summer,
  some snow would be nice... oh yeah...


e|0---0---0---0---|0---0---0---0---|0---0---0---0---|0---0---0---0---|
B|1---1---1---1--3|0---0---0---0--1|1---1---1---1--0|1---1---1---1---|
G|----------------|----------------|----------------|----------------|
D|2---------------|2---------------|2---------------|2---------------|
A|3---------------|2---------------|0---------------|2---------------|
E|----------------|----------------|----------------|----------------|
                   boston... (where) no one knows my name... yeah...

e|0---0---0---0---|0---0---0---0---|0---0---0---0---|0---0---0---0---|
B|1---1---1---1--3|0---0---0---0--1|1---1---1---1--0|1---1---1---1---|
G|----------------|----------------|----------------|----------------|
D|2---------------|2---------------|2---------------|2---------------|
A|3---------------|2---------------|0---------------|2---------------|
E|----------------|----------------|----------------|----------------|
  no one knows my name... no one knows my name... yeah...

Part 6 (Outro, piano solo)

e|--0---0-3-0---0-|--0---0-3-0---0-|--0---0-3-0-3-7-|---3--0--3--8---|
B|1---1-------1---|0---0-------0---|1---1-----------|----------------|
G|----------------|----------------|----------------|----------------|
D|2---------------|2---------------|2---------------|----------------|
A|3---------------|2---------------|0---------------|----------------|
E|----------------|----------------|----------------|----------------|


e|--0---0-3-0---0-|--0---0-3-0---0-|--0---0-3-0---0-|--0---0---0-----|
B|1---1-------1---|1---1-------1---|1---1-------1---|3---3---3---3---|
G|2---------------|----------------|2---------------|4---------------|
D|3---------------|2---------------|3---------------|5---------------|
A|----------------|3---------------|----------------|----------------|
E|----------------|----------------|----------------|----------------|
  Boston...                                          no one knows my

e|--8-------------|
B|----------------|
G|----------------|
D|----------------|
A|----------------|
E|----------------|
  (Name)

----------------------------------------------------------------------

Note:
1) Lyrics with bracket can be ignored as they hardly be heard in song.
2) Tab is based on cd version, I'll post MV and concert version soon.
3) Listen to the song before you try out this tab.
4) Lyrics not aligned with the tab precisely.
5) E-mail me if you feel like to give comment or correction.
6) I'm willing to accept any comment including criticize.
7) Most 5th note for intro/verse/outro can be played by hammering.

----------------------------------------------------------------------

Simple Summary:

Part 1 (intro/Verse/outro) x4

e|--0---0-3-0---0-|--0---0-3-0---0-|--0---0-3-0-3-7-|---3--0--3--8---|
B|1---1-------1---|0---0-------0---|1---1-----------|----------------|
G|----------------|----------------|----------------|----------------|
D|2---------------|2---------------|2---------------|----------------|
A|3---------------|2---------------|0---------------|----------------|
E|----------------|----------------|----------------|----------------|

e|--0---0-3-0---0-|--0---0-3-0---0-|--0---0-3-0---0-|--0---0---0-----|
B|1---1-------1---|1---1-------1---|1---1-------1---|3---3---3---3---|
G|2---------------|----------------|2---------------|4---------------|
D|3---------------|2---------------|3---------------|5---------------|
A|----------------|3---------------|----------------|----------------|
E|----------------|----------------|----------------|----------------|

Part 2 (chorus 1)

e|0---0---0---0---|0---0---0---0---|0---0---0---0---|0---0---0---0---|
B|1---1---1---1---|0---0---0---0---|1---1---1---1---|1---1---1---1---|
G|----------------|----------------|----------------|----------------|
D|2---------------|2---------------|2---------------|2---------------|
A|3---------------|2---------------|0---------------|2---------------|
E|----------------|----------------|----------------|----------------|

e|0---0---0---0---|0---0---0---0---|0---0---0---0---|0---------------|
B|1---1---1---1---|0---0---0---0---|1---1---1---1---|1---------------|
G|----------------|----------------|----------------|----------------|
D|2---------------|2---------------|2---------------|2---------------|
A|3---------------|2---------------|0---------------|2---------------|
E|----------------|----------------|----------------|----------------|

Part 3 (intro/verse/outro) x3

Part 4 (chorus 1) x1

Part 5 (Chorus 2) x4

e|0---0---0---0---|0---0---0---0---|0---0---0---0---|0---0---0---0---|
B|1---1---1---1--3|0---0---0---0--1|1---1---1---1--0|1---1---1---1---|
G|----------------|----------------|----------------|----------------|
D|2---------------|2---------------|2---------------|2---------------|
A|3---------------|2---------------|0---------------|2---------------|
E|----------------|----------------|----------------|----------------|

Part 6 (intro/verse/outro) x1
Show more
sponsored links
sponsored links