Plantlife Tab by Autolux


Hello, this is an autolux song called plantlife. There is no copywrite crap here, cause 
not here to make money, just to teach and stuff.

Any corrections you have, feel free to tell me about.

Tuning: (from low to high)Eb Ab Db Gb Bb eb
e----------------------------------------------------------|
B----------------------------------------------------------|
G--7------7-------9-------4--------------------------------|
D--5--x16-5--x16--7--x16--2--x16---------------------------|
A--6------7-------8-------3--------------------------------|
E----------------------------------------------------------|

do that a bunch of times, all downstrokes for the first and second verse.

then with some effects:

e----10-------------------------14-------------------------|
B-----------------13---------------------------------------|
G-8-----------8---------------------0---repeat-------------|
D-------0-------------------13-----------------------------|
A-----------------------10---------------------------------|
E----------------------------------------------------------|

e----------1------------1---  ---10-----8-----10-------------------|
B----------0------------0---  ---10-----8-----10----0--------------|
G----------0------------0---  ---8------0-----8-----0--------------|
D---------------------------  ---8------x-----8-----0--------------|
A---------------------------  ---6------x-----6--------------------|
E--3b--3r-----3--3b--3r-----  ----------8-----------3--------------|
                                im not very sure about this part

so thats it. some parts are more unsure than others, but its okay.
and if someone could tell me how to make the lines to separate the tab lines, that would 
grate, cause the space i put in looks horrible

thanks, bye
Show more