-9-7---------------------------|
-----9-7-5-5--5-5-5-5-4-4-5-5--|
-------------------------------|
-------------------------------|
-------------------------------|
-------------------------------|

-9-7---------------------------|
-----9-7-5-5--5-5-5-5----------|
----------------------6-6-4-4--|
-------------------------------|
-------------------------------|
-------------------------------|

Really simple tabs...

By Simon J├Ânsson
Show more