-------------------------------------------------------------------------------
			      Not Your Fault - Awolnation
-------------------------------------------------------------------------------

Tabbed By : Strictlyrude
e-mail: blindpuncher@gmail.com

Tuning:EADG
 
Versa/intra enter@ 0:13			(Optional)
G|----10~--|----9~--|-----7~--|-----5----|--5----|-X2-|
D|---------|--------|---------|----------|-------|-X2-|
A|---------|--------|---------|----------|-------|-X2-|
E|/10------|-8------|-6-------|-5--------|-5--5--|-X2-|


Pre-Chorusa@0:26
G|----------------|----------------|-----------------|----------------|-X3-|
D|----------------|----------------|-----------------|----------------|-X3-|
A|5-5-5-5-5-5-5-5-|3-3-3-3-3-3-3-3-|-1-1-1-1-1-1-1-1-|--------------3-|-X3-|
E|----------------|----------------|-----------------|5-5-5-5-5-5-5---|-X3-|

Play into Chorusa
G|------------|------------------------------------------------------------|
D|------------|------------------------------------------------------------|
A|------------|------------------------------------------------------------|
E|1-1-1/13-13-|(F to F on the E.  This Replaces the bar of A at the end)---|

Chorusa						Variation		
G|----------|-------|------------|--------|----------|-------|-------|--------|
D|----------|-------|------------|--------|----------|-------|-------|--------|
A|----------|-------|------------|--------|----------|1-11-1-|5-55-5-|-3-33-3-|
E|11-11-1-1-|6-66-6-|-10-1010-10-|8-88-8--|11-11-1-1-|-------|-------|--------|

Ending Slide fills
G|--|----------|------|-----------|------------|--|----------|-------|-------|-----------|
D|--|----------|------|-----------|------------|--|----------|-------|-------|-----------|
A|--|----------|------|-----------|------------|--|----------|1-11-1-|5-55-5-|3-33-3/5\3-|
E|1.|11-11-1-1-|6-66-6|-10-1010-10|8-88-8/10\8-|2.|11-11-1-1-|-------|-------|-----------|

Post-Choursa		           Play After 2nd and 3rd choursa 
G|-----------|------------|7------------|9---9----------------|
D|-----------|------------|8--------567-|10--10---------------|
A|1-11-11-11-|3-33-33-33--|------875----|-----------10-87-----|
E|-----------|------------|6-66-6-------|8------88--------8\1-|

Odd Fills/break
G|--|----|--|12/14\12/14-|
D|--|----|--|------------|
A|--|----|--|------------|
E|1.|0h1-|2.|------------|

1. Can be heard @2:46
2. Can be heard @2:33 and 3:30

Thats it! gratz on learing a new song.  The song layout is very simple.
I hope its not too much to figure out.
Anything that i didn't tab you can probabably make out by ear.
The Second of the odd fills is played with a second bass track, so if you want, 
slip it in at the break.
The Way you play the chours dosent really matter. As long as you follow F-Bb-D-C
The timing for the post chours riffs is very tight and hard to learn at first.
Keep trying and it will come to you eventually!
Enjoy!...or else



| /  slide up
| \  slide down
| h  hammer-on
| p  pull-off
| ~  vibrato
| +  harmonic
| x  Mute note
===============================================================================
Show more