Awolnation – Sail (Standard) Tunning

The song is done in Eb tunning. However, I did this in Standard Tunning because I know 
some of us really don't like drop tunning our guitars a half step. For those that would 
like to have it in Eb tunning, check out D'Arcy's Tab.

Awolnation is a American Indie Rock Band. This is there new EP solo recording, so i hope 
everyone will enjoy it.


Opening

e------------------------------------|
B-9-9-7-7-7-7-7-7--------------------|
G------------------------------------|
D------------------------------------|
A------------------------------------|
E------------------------------------| X2

e---------------------9-9-9-9--------|
B-9-9-6-6-6-6-6-6-6-6---------9-9-9-9|
G------------------------------------|
D------------------------------------|
A------------------------------------|
E------------------------------------|



e---------------------------------|
B---------------------------------|
G---------------------------------|
D-8---------------6--8--6---------|
A-6---6-6-6-9-9-9---------9-6-----|
E-6-------------------------------| x2


e-----------------------------|
B-----------------------------|
G-----------------------------|
D-6---------------------4-----|
A-4---4-4-4-6-6-6----6----6-4-|
E-4---------------6-----------|


e-------------------------------------|
B-------------------------------------|
G------------------------8-8-8-12-----|
D-11--8-8-8-11-11-11--6---------------|
A-9-------------------4---------------|
E-9-------------------4---------------|

Please leave me feed back. Thank You.
Done by: Michael
Deaconfrost4469@gmail.com
Show more