Tabbed by: POD0
Email: jacobpodegracz@yahoo.com


Okay so basically this song is three chords with some picking in between each chord. 
Once you get this pattern down though just repeat it throughout the whole song. Enjoy:)

p.s. this is my first tab! :D

e|--------------------------------------------------------------------------|
B|--------------------------------------------------------------------------|
G|-8-------------------------8-------------------------6--------------------|
D|-8--------------6-8-6------8--------------6-8-6------6-----------------4--|
A|-6--6-6-6-9-9-9-------9-6--6--6-6-6-9-9-9-------9-6--4--4-4-4-6-6-6--4----|
E|-6-------------------------6-------------------------4--------------6-----|

e|--------------------------------|
B|-----------------------4-4-4-7--|
G|------11------------6-----------|
D|------11--8-8-8-11--6-----------|
A|-6-4--9-------------4-----------|
E|------9-------------4-----------|
Show more