-------------------------------------------------------------------------------
			     Wake Up - Awolnation
-------------------------------------------------------------------------------

Tabbed By : Strictlyrude
e-mail: Blindpuncher@gmail.com

Tuning:EADG

Versea/intra (starts at around 0:35)                (The C begins the choursa)
G|----------|-------------------------------|-----------|--------------------|
D|-3-3-3-3--|3-33--3-33--3---3-3--3---3---3-|-6----8----|--------------------|
A|----------|-------------------------------|-----------|-3------------------|
E|1-1-1-1-1-|-----1-1------1--1-1---1---1---|--4-----6--|--------------------|

Choursa		(Choursa endings)
G|-------|-----|12/14-|1313-1212-1010----|-------|---------------------------|
D|--8----|6----|12/14-|---------------13-|8----6-|6----------101113----------|
A|---8-6-|-6---|------|------------------|--10---|--6----11------------------|
E|6------|---4-|------|------------------|-------|----44---------------------|

Return to versa @ 1:23
G|---------------------------------------------------------------------------|
D|6---8----------------------------------------------------------------------|
A|---------------------------------------------------------------------------|
E|-4----6--------------------------------------------------------------------|

Bridge 2:00
G|---------------------------------------------------------------------------|
D|------------------------------------6-8------------6-----------------------|
A|8-8-8--8-8-8--8-8-8--------8-8-8--8------8-8-8--6-6------------------------|
E|---------------------8-8-9-------------------------------------------------|

Thats it!.
 I hope you enjoyed this tab.
 The song layout is pretty simple and not much changes throughout the song.  Timing is
everything for this song,
and i know some of the timing for this tab maybe a bit off,
but work through it.
The verse revolves around octaves and the choursa grooves real well.
***Special note***: I had some help for this tab.  Although he didn't directly help me,
i watched this video: http://www.youtube.com/watch?v=SYXqDT_cMys and pretty much wrote
this tab from what that guy posted.  Anyways thanks to him for being so awesome and 
thanks to you for putting up with my post-tab ramble!

| /  slide up
| \  slide down
| h  hammer-on
| p  pull-off
| ~  vibrato
| +  harmonic
| x  Mute note
===============================================================================
Show more