sponsored links
Uvod:
------------------------------------------------------------------------------|
------------------------------------------------------------------------------|
------------------------------------------------------------------------------|
---0---------------------------------------------0----------------------------|
------4--2-----4--2------------------4--2-----------4--2-----4--2-------------|
------------3--------3--0---0--0--3--------3--0-----------3--------0--2--3--4-|

------------------------------------------------------------------------------|
------------------------------------------------------------------------------|
------------------------------------------------------------------------------|
--0---------------------------------------------4-4-4-4-4-4-4-4---------------|
-----4--2-----4--2------------------4--2--------2-2-2-2-2-2-2-2---------------|
-----------3--------3--0---0---0p3--------3--0--------------------------------|


       E              A
Ili je nemir ( ili je nemir )
ili je strast ( ili je strast )
Ima tog ovdje ( ima tog ovdje )
     B
isuviseeeee...

E                  A      B
Ljeti prolijece na tisuce zdralova
U prvom sutonu jedan od njih
skida prsten sa zelene narance
predah izmedju ratova
( predah izmedju ratova )

Zasto uzdisu stasale djevojke
Poljupce ionako nitko ne broji
Olovni kovcezi noseni maticom
Kriju sarena odlicja
( kriju sarena odlicja )

G#m                  E
Ili je nemir ili je straast...
G#m                  A   B
Ima tog ovdje isuvise...


Ref: pa solo


Ili je nemir ili je strast
Ima tog ovdje isuvise...

Ref: pa drugi solo
Show more
sponsored links
sponsored links