sponsored links
FTH80:G D A E ; Generated by Fast Tab, do not erase
====================
>From            : Paski
Artist          : Azra - Pit i to je Amerika
Bass Performance:
Comments:       : Send any comments, suggestions, etc. to schweun@yahoo.com
Strings: E ,A ,D ,G
Symbols explanations:
  H: hammer on  P: pull off
  +: slap       .: pop
  \: slide up   /: slide down
  --x~~x~~x: triplets
====================

|      q  e  q  q  q  e  q  e  e  q  e  q  e  q  e  q  e  q  e  e
G -----------------------------------------------------------------|
D -----------------------------------------------------------------|
A -----------3--5--------3--2--0--------3--3--3--3--5--5--3--2--0--|
E -9/---3--3--------3--3-----------3--3----------------------------|
>

|   q  e  q  q  q  e  q  e  e  q  e  q  e  q  e  q  e   q  e  q  e  q  e
G ------------------------------------------------------------------------|
D ------------------------------------------------------------------------|
A --------3--5--------3--2--0--------3--3--3--3--5--5---3--3--2--2--0--0--|
E --3--3--------3--3-----------3--3---------------------------------------|
Show more
sponsored links
sponsored links