Repeat these POWER chords throughout the song...


     a      f      c      g
e|-------------------------------------------------------------------|
B|-------------------------------------------------------------------|
G|-----------------5-------------------------------------------------|
D|---5------3------5------5------------------------------------------|
A|---5------3------3------5------------------------------------------|
E|---7------1-------------3------------------------------------------|

In some parts you can match the synth by playing the note on the E and then the note on 
D (the octave).

e|----------------------------|
B|----------------------------|
G|----------------------------|
D|------5------5-----5--------|
A|----------------------------|
E|--7------7-----7------------|  and so on.

I like to use a bunch of distortion with this one!!!

Tabbed By: Kindling   d[-_-]b

Email: bendragn_12@hotmail.com
Show more