----------------------------------------------------------------------------
			     DOTA - Basshunter
----------------------------------------------------------------------------
Tabbed by: Andrew Davis
Email: iiidavisiii@gmail.com

This is the chorus and pretty much the whole song.
4 DAY RAVE!

e|-------------------------------------------------------------------------|
B|-------------------------------------------------------------------------|
G|-------------------------------------------------------------------------|
D|--5---5---5---7---------5----5---5--7------------------------------------|
A|----7---7-------7---------77---7------8----------------------------------|
E|-------------------------------------------------------------------------|

e|-------------------------------------------------------------------------|
B|-------------------------------------------------------------------------|
G|-------------------------------------------------------------------------|
D|--5---5---5-5----------5---5---5-5---------------------------------------|
A|----7---7-----8----------7---7-----7-------------------------------------|
E|-------------------------------------------------------------------------|

============================================================================
Show more