• Song:

    Barbara ann

  • Artist:

    Beach Boys

  • Album:

    Made in U.S.A.

Standard tuning

Start playing after the 2nd "Ba ba ba ba Barbara Ann"

  1 + 2 + 3 + 4 + 1 + 2 + 3 + 4 + 1 + 2 + 3 + 4 + 1 + 2 + 3 + 4 +
||---------------|---------------|------------1--|4---2---1------|
4:------------1--|4---2---1------|----1---4------|------------4--|
4:----1---4------|------------4--|2--------------|---------------|
||2--------------|---------------|---------------|---------------|

  1 + 2 + 3 + 4 + 1 + 2 + 3 + 4 + 1 + 2 + 3 + 4 + 1 + 2 + 3 + 4 +
 |---------------|---------------|---------------|---------------|
 |------------1--|4---2---1------|---------------|---------------|
 |----1---4------|------------4--|4-------------4|2--------------|
 |2--------------|---------------|---------------|---------------|

  1 + 2 + 3 + 4 + 1 + 2 + 3 + 4 +  1 + 2 + 3 + 4 + 1 + 2 + 3 + 4 +
 |---------------|---------------||---------------|F----B----R---||
 |------------1--|------------1--|*---------------|O----E----E---*|
 |----1---4------|----1---4------|*---------------|U----A----S---*|
 |2--------------|2--------------||2--------------|R----T----T---||[x2]

  1 + 2 + 3 + 4 + 1 + 2 + 3 + 4 + 1 + 2 + 3 + 4 + 1 + 2 + 3 + 4 +
 |------------1--|------------1--|---------------|---------------|
 |----1---4------|----1---4------|------------1--|------------1--|
 |2--------------|2--------------|----1---4------|----1---4------|
 |---------------|---------------|2--------------|2--------------|

  1 + 2 + 3 + 4 + 1 + 2 + 3 + 4 + 1 + 2 + 3 + 4 + 1 + 2 + 3 + 4 +
 |---------------|---------------|---------------|---------------|
 |---------------|---------------|------------1--|4---2---1------|
 |4--------------|2--------------|----1---4------|------------4--|
 |---------------|---------------|2--------------|---------------|

  1 + 2 + 3 + 4 + 1 + 2 + 3 + 4 + 1 + 2 + 3 + 4 + 1 + 2 + 3 + 4 +
 |---------------|R--------------|R--------------|R--------------|
 |---------------|E--------------|E--------------|E-----------4--|
 |---------------|S--------------|S--------------|S--------------|
 |2--------------|T--------------|T--------------|T--------------|
    Ba ba ba ba Barbara Ann....      Ba ba ba ba Barbara Ann...

  1 + 2 + 3 + 4 + 1 + 2 + 3 + 4 + 1 + 2 + 3 + 4 + 1 + 2 + 3 + 4 +
 |---------------|---------------|------------1--|4---2---1------|
 |------------1--|4---2---1------|----1---4------|------------4--|
 |----1---4------|------------4--|2--------------|---------------|
 |2--------------|---------------|---------------|---------------|

  1 + 2 + 3 + 4 + 1 + 2 + 3 + 4 + 1 + 2 + 3 + 4 + 1 + 2 + 3 + 4 +
 |---------------|---------------|---------------|--------------->
 |------------1--|4---2---1------|---------------|--------------->
 |----1---4------|------------4--|4--------------|2-------------->
 |2--------------|---------------|---------------|--------------->
                                  1 + 2 + 3 + 4 + 1 + 2 + 3 + 4 +
                                 <---------------|---------------|
                                 <------------1--|4---2---1------|
                                 <----1---4------|------------4--|
                                 <2--------------|---------------|
((Instrumental break->))

  1 + 2 + 3 + 4 + 1 + 2 + 3 + 4 + 1 + 2 + 3 + 4 + 1 + 2 + 3 + 4 +
((---------------|---------------|---------------|---------------|
((------------1--|4---2---1------|---------------|---------------|
((----1---4------|------------4--|------------4--|------------1--|
((2--------------|---------------|2---4---2------|2---4---2------|

  1 + 2 + 3 + 4 + 1 + 2 + 3 + 4 + 1 + 2 + 3 + 4 + 1 + 2 + 3 + 4 +
 |---------------|------------1--|---------------|---------------|
 |------------4--|----1---4------|----4---2------|---------------|
 |2---4---2------|2--------------|------------4--|----1--23--4---|
 |---------------|---------------|2--------------|2--------------|

  1 + 2 + 3 + 4 + 1 + 2 + 3 + 4 + 1 + 2 + 3 + 4 + 1 + 2 + 3 + 4 +
 |---------------|---------------|---------------|---------------))
 |----3-------6--|---------------|------------1--|---------------))
 |4-------4------|----1---2---4--|----1---4------|4---2---1------))
 |---------------|2--------------|2--------------|------------4--))

  1 + 2 + 3 + 4 + 1 + 2 + 3 + 4 + 1 + 2 + 3 + 4 + 1 + 2 + 3 + 4 +
 |---------------|R--------------|R--------------|R--------------|
 |---------------|E--------------|E--------------|E--------------|
 |---------------|S--------------|S--------------|S--------------|
 |2--------------|T--------------|T--------------|T-----------2--|
 Tried Peggy Sue, tried Betty Lou, tried Mary Lou, blah blah blah...

  1 + 2 + 3 + 4 + 1 + 2 + 3 + 4 + 1 + 2 + 3 + 4 + 1 + 2 + 3 + 4 +
 |------------1--|------------1--|---------------|----------------|
 |----1---4------|----1---4------|------------1--|4---2---1-------|
 |2--------------|2--------------|----1---4------|------------2---|
 |---------------|---------------|2--------------|----------------|

  1 + 2 + 3 + 4 + 1 + 2 + 3 + 4 + 1 + 2 + 3 + 4 + 1 + 2 + 3 + 4 +
 |---------------|---------------|---------------|---------------|
 |---------------|---------------|------------1--|------------1--|
 |4--------------|2--------------|----1---4------|----1---4------|
 |---------------|---------------|2--------------|2--------------|

  1 + 2 + 3 + 4 + 1 + 2 + 3 + 4 + 1 + 2 + 3 + 4 + 1 + 2 + 3 + 4 +
 |---------------|R--------------|R--------------|R--------------|
 |---------------|E--------------|E--------------|E--------------|
 |---------------|S--------------|S--------------|S--------------|
 |2--------------|T--------------|T--------------|T--------------|
   Ba ba ba ba Barbara Ann....      Ba ba ba ba Barbara Ann...

  1 + 2 + 3 + 4 + 1 + 2 + 3 + 4 + 1 + 2 + 3 + 4 + 1 + 2 + 3 + 4 +
 |---------------|---------------|---------------|---------------|
 |------------1--|------------1--|------------1--|------------4--|
 |----1---4------|----1---4------|2---1---4------|2---4---2------|
 |2--------------|2--------------|---------------|---------------|
 
  1 + 2 + 3 + 4 + 1 + 2 + 3 + 4 + 1 + 2 + 3 + 4 + 1 + 2 + 3 + 4 +
 |---------------|---------------|---------------|---------------|
 |---------------|------------1--|---------------|---------------|
 |------------4--|----1---4------|4--------------|2--------------|
 |2---4---2------|2--------------|---------------|---------------|

  1 + 2 + 3 + 4 + 1 + 2 + 3 + 4 +  1 + 2 + 3 + 4 + 1 + 2 + 3 + 4 +
 |---------------|---------------||---------------|---------------||
 |------------1--|------------1--|*------------1--|------------1--*|
 |----1---4------|----1---4------|*----1---4------|----1---4------*|
 |2--------------|2--------------||2--------------|2--------------||[x2]

  1 + 2 + 3 + 4 + 1 + 2 + 3 + 4 + 1 + 2 + 3 + 4 + 1 + 2 + 3 + 4 +
 |------------1--|------------1--|---------------|---------------|
 |----1---4------|----1---4------|------------1--|------------1--|
 |2--------------|2--------------|----1---4------|----1---4------|
 |---------------|---------------|2--------------|2--------------|

  1 + 2 + 3 + 4 + 1 + 2 + 3 + 4 + 
 |---------------|---------------|
 |---------------|---------------|
 |4--------------|2--------------|
 |---------------|---------------| 


Tab by A. Romanski
Show more