• Song:

    Riot Fight

  • Artist:

    Beastie Boys

  • Album:

    Some Old Bullshit

A very short song by Beastie Boys

Chorus (Only Bass)
G--------------|
D--------------|
A--3-3-3-3-----|
E----------3---|

Verse
E-----------------------------------|
B-----------------------------------|
G--5-5-5-5--------------------------|
D--5-5-5-5-5-5-5-5-3-3-3-3-5-5-5-5--|
A--3-3-3-3-5-5-5-5-3-3-3-3-5-5-5-5--|
E----------3-3-3-3-1-1-1-1-3-3-3-3--|

Chorus x4
Verse  x4
Chorus x4
Verse  x2
Show more