SAVOY TRUFFLE

Sax arranged for bass

VERSE

Creme tangerine and montelimat...

G|---------9-------7---------------|---------7---4-------------------|
D|-------------9-------9---5-------|-----------------5---6-----------|
A|-7---------------------------7---|-------------------------7---8---|
E|---------------------------------|---------------------------------|

G|---------9---6---11--9-----------|---------11--9-------------------|
D|-------------------------7---8---|---------------------------------|
A|-9-------------------------------|-9---------------9---10--11--12--|
E|---------------------------------|---------------------------------|

G|---------11--9-------------------|---------12--9-------------------|
D|-----------------10--11----------|-----------------10--11----------|
A|-----------------------------12--|-------------------------12--11--|
E|-------------------------12------|---------------------------------|

G|---------------------------------|---------------------------------|
D|-----------------9---10--11--12--|-----------------5---7---8---9---|
A|-10------------------------------|---------------------------------|
E|---------------------------------|---------------------------------|

G|---------14------16------14------|-------------14----------16------|
D|-------------16------16------9---|---------------------------------|
A|---------------------------------|---------------------------------|
E|---------------------------------|---------------------------------|

G|---------------------------------|---------------------------------|
D|-----------------2---2-----------|-2---2-----------2---2-----------|
A|---------------------------------|---------------------------------|
E|---------------------------------|---------------------------------|

G|---------12----------------------|-12--12--12--12------------------|
D|-10------14----------------------|-12--12--12--12------------------|
A|---------------------------------|---------------------------------|
E|---------------------------------|---------------------------------|

VERSE

Cool cherry creme and a nice apple tart...

G|---------9-------7---------------|---------7---4-------------------|
D|-------------9-------9---5-------|-----------------5---6-----------|
A|-7---------------------------7---|-------------------------7---8---|
E|---------------------------------|---------------------------------|

G|---------9---6---11--9-----------|---------11--9-------------------|
D|-------------------------7---8---|---------------------------------|
A|-9-------------------------------|-9---------------9---10--11--12--|
E|---------------------------------|---------------------------------|

G|---------11--9-------------------|---------12--9-------------------|
D|-----------------10--11----------|-----------------10--11----------|
A|-----------------------------12--|-------------------------12--11--|
E|-------------------------12------|---------------------------------|

G|---------------------------------|---------------------------------|
D|-----------------9---10--11--12--|-----------------5---7---8---9---|
A|-10------------------------------|---------------------------------|
E|---------------------------------|---------------------------------|

G|---------14------16------14------|-------------14----------16------|
D|-------------16------16------9---|---------------------------------|
A|---------------------------------|---------------------------------|
E|---------------------------------|---------------------------------|

G|---------------------------------|---------------------------------|
D|-----------------2---2-----------|-2---2-----------2---2-----------|
A|---------------------------------|---------------------------------|
E|---------------------------------|---------------------------------|

G|---------12----------------------|-12--12--12--12------------------|
D|-10------14----------------------|-12--12--12--12------------------|
A|---------------------------------|---------------------------------|
E|---------------------------------|---------------------------------|

BRIDGE

You might not feel it now...

G|-7-----------6-------------------|-7-----------8-------------------|
D|---------------------------------|---------------------------------|
A|---------------------------------|---------------------------------|
E|---------------------------------|---------------------------------|
   pain  ...  though      ...       know   ...   how

The sweat is going to fill your head...

G|-7-----------6-------------------|-12----------11------------------|
D|---------------------------------|-12----------13------------------|
A|---------------------------------|---------------------------------|
E|---------------------------------|---------------------------------|
 becomes  ...  much       ...       you’ll    aloud

GUITAR SOLO

G|---------------------------------|---------------------------------|
D|---------------------------------|---------------------------------|
A|---------------------------------|---------------------------------|
E|---------------------------------|---------------------------------|

G|---------9---7-------------------|---------------------------------|
D|-----------------9---7---5-------|-------------------------2---3---|
A|-----------------------------7---|-----5---------------------------|
E|---------------------------------|-------------7---5---3-----------|

G|---------------------------------|---------------------------------|
D|-4-------------------------------|---------------------------------|
A|---------------------------------|---------------------------------|
E|---------------------------------|---------------------------------|

G|---------14--12--9---7---5-------|---------------------------------|
D|-----------------------------7---|-----5---------------------------|
A|---------------------------------|-------------7---5---3-----------|
E|---------------------------------|-------------------------5---4---|

G|---------------------------------|---------------------------------|
D|---------------------------------|---------------------------------|
A|---------------------------------|---------------------------------|
E|-3-------------------------------|---------------------------------|

G|---------16--14--11--9---7---8---|---------------------------------|
D|---------------------------------|-9---7---8---9-------------------|
A|---------------------------------|-----------------9---9---7---6---|
E|---------------------------------|---------------------------------|

CHORUS

G|---------------------------------|---------------------------------|
D|-2---2-----------0---2-----------|-2---2-----------2---2-----------|
A|---------------------------------|---------------------------------|
E|---------------------------------|---------------------------------|

G|---------12----------------------|-12--12--12--12------------------|
D|-10------14----------------------|-12--12--12--12------------------|
A|---------------------------------|---------------------------------|
E|---------------------------------|---------------------------------|

BRIDGE

You know that what you eat you are...

G|-7-----------6-------------------|-7-----------8-------------------|
D|---------------------------------|---------------------------------|
A|---------------------------------|---------------------------------|
E|---------------------------------|---------------------------------|
  sweet       now         ...        so         sour

We all know Ob-La-Di, Bla-Da...

G|-7-----------6-------------------|-12----------11------------------|
D|---------------------------------|-12----------13------------------|
A|---------------------------------|---------------------------------|
E|---------------------------------|---------------------------------|
  show         me        ...         you         are

VERSE

Creme tangerine and montelimat...

G|---------9-------7---------------|---------7---4-------------------|
D|-------------9-------9---5-------|-----------------5---6-----------|
A|-7---------------------------7---|-------------------------7---8---|
E|---------------------------------|---------------------------------|

G|---------9---6---11--9-----------|---------11--9-------------------|
D|-------------------------7---8---|---------------------------------|
A|-9-------------------------------|-9---------------9---10--11--12--|
E|---------------------------------|---------------------------------|

G|---------11--9-------------------|---------12--9-------------------|
D|-----------------10--11----------|-----------------10--11----------|
A|-----------------------------12--|-------------------------12--11--|
E|-------------------------12------|---------------------------------|

G|---------------------------------|---------------------------------|
D|-----------------9---10--11--12--|-----------------5---7---8---9---|
A|-10------------------------------|---------------------------------|
E|---------------------------------|---------------------------------|

G|---------14------16------14------|-------------14----------16------|
D|-------------16------16------9---|---------------------------------|
A|---------------------------------|---------------------------------|
E|---------------------------------|---------------------------------|

G|---------------------------------|---------------------------------|
D|-----------------2---2-----------|-2---2-----------2---2-----------|
A|---------------------------------|---------------------------------|
E|---------------------------------|---------------------------------|

G|---------12----------------------|-12--12--12--12------------------|
D|-10------14----------------------|-12--12--12--12------------------|
A|---------------------------------|---------------------------------|
E|---------------------------------|---------------------------------|

G|---------------------------------|---------------------------------|
D|-2---2-----------2---2-----------|-2---2-----------2---2-----------|
A|---------------------------------|---------------------------------|
E|---------------------------------|---------------------------------|

G|---------12----------------------|-12--12--12--12------------------|
D|-10------14----------------------|-12--12--12--12------------------|
A|---------------------------------|---------------------------------|
E|---------------------------------|---------------------------------|
Show more