• Song:

    She Came In Through the Bathroom Window

  • Artist:

    Beatles

  • Album:

    The Alternate Abbey Roa...

SHE CAME IN THROUGH THE BATHROOM WINDOW

Written by Paul McCartney
From Abbey Road album, released on September 26, 1969
Recorded on July 25, 1969

INTRO

G|---------------------------------|---------------------------------|
D|-7-------------------------------|---------------------------------|
A|---------------------------------|---------------------------------|
E|---------------------------------|---------------------------------|
               She came in     through       the bathroom        window

VERSE

G|---------------------------------|---------------------------------|
D|-----------------4---------------|-7-------7---7-------7-----------|
A|-5-------------------------------|-------------------------7-\-----|
E|---------------------------------|---------------------------------|


G|---------------------------------|---------------------------------|
D|---------------------------------|-4-------------------------------|
A|-----------------4---------------|-----------------7---------------|
E|-5-------------------------------|---------------------------------|
               Protected             by  a       silver          spon

G|---------------------------------|---------------------------------|
D|-----------------4---------------|-7-------7-----------------------|
A|-5-------------------------------|-------------7-------7-----------|
E|---------------------------------|-------------------------9-------|


G|---------------------------------|---------------------------------|
D|---------------------------------|-4-------------------------------|
A|-----------------7---------------|-----------------4---------------|
E|-5-------------------------------|---------------------------------|
               But now     she sucks     her     thumb       and wonders

G|---------------------------------|---------------------------------|
D|---------------------------------|-------------7-----------7-------|
A|-5---------------7---------------|-9-------9-----------9-----------|
E|---------------------------------|---------------------------------|
                                                     By      the banks

G|---------------------------------|---------------------------------|
D|---------------------------------|---------------------------------|
A|-5---------------5---------------|-5-------5-------5---6---7-------|
E|---------------------------------|---------------------------------|
                   of      her own           lagoon

G|---------------------------------|---------------------------------|
D|---------------------------------|---------------------------------|
A|---------------------------------|---------------------------------|
E|-5-------------------------------|---------------------------------|
           Didn’t  anybody                                       tell

CHORUS

G|---------------------------------|---------------------------------|
D|---------------------------------|-----------------5---------------|
A|-5---------------7---------------|-8-------------------------------|
E|---------------------------------|---------------------------------|
           her

G|---------------------------------|---------------------------------|
D|-7-------------------------------|---------------------------------|
A|-----------------7---------------|-4-------------------------------|
E|---------------------------------|-----------------5---------------|
           Didn’t  anybody                                       see

G|---------------------------------|---------------------------------|
D|---------------------------------|---------------------------------|
A|-5---------------3---------------|-2-------------------------------|
E|---------------------------------|-----------------5---------------|


G|---------------------------------|---------------------------------|
D|---------------------------------|---------------------------------|
A|-----------------2---------------|-5-----------------------2-------|
E|-3-------------------------------|-----------------3---5-----------|
   Sundays         on      the       phone           to      Monday

G|---------------------------------|---------------------------------|
D|---------------------------------|---------------------------------|
A|-3-----------------------2-------|---------------------------------|
E|---------------------------------|-----------------5---------------|


G|---------------------------------|---------------------------------|
D|---------------------------------|-5-------------------------------|
A|-----------------5---------------|---------------------------------|
E|-3-------------------------------|-----------------3---------------|
   Tuesdays        on      the       phone           to      me

G|-------------------------2-------|
D|---------2-------5---------------|
A|-3-------------------------------|
E|---------------------------------|


G|---------------------------------|---------------------------------|
D|---------------------------------|---------------------------------|
A|---------------------------------|---------------------------------|
E|---------------------------------|-------------------------x-\-----|
               She said    she’d always              been    a   dancer

VERSE

G|---------------------------------|---------------------------------|
D|---------------------------------|-----------------4---7---4-\-----|
A|-5-------------------------------|-5-----------5-------------------|
E|-----------------------------5---|---------------------------------|


G|---------------------------------|---------------------------------|
D|---------------------2-----------|-2---4-----------4---2-----------|
A|-----------------4---------------|-------------4-------------------|
E|-5-----------5-------------------|---------------------------------|
               She worked  at        fifteen     clubs           a

G|---------------------------------|---------------------4-----------|
D|-----------------4---7-----------|-----------------7---------------|
A|-----5-------5-------------------|-5-----------5-------------------|
E|-5-------------------------------|---------------------------------|
   day

G|---------------------------------|---------------------------------|
D|---------------------2-----------|-2---4-----------4---2-----------|
A|-----------------4---------------|-------------4-----------4-------|
E|-5-----------5-------------------|---------------------------------|
               And though  she thought   I       knew        the answer

G|---------------------------------|-------------7-------------------|
D|-----------------4---7-----------|-----------------7---4-----------|
A|-----5-------5-------------------|-----5---------------------------|
E|-5-------------------------------|-5-------------------------------|
                                                     Well,   I   knew

G|-------------------------4-------|-4-h-5-------7-------------------|
D|-------------4-------7-----------|-----------------9---7-----------|
A|-----5---------------------------|-------------------------9---5---|
E|-5-------------------------------|---------------------------------|
                   what    I   could         not say

G|---------------------------------|---------------------------------|
D|---------------------------------|---------------------------------|
A|---------------------------------|---------------------------------|
E|-5-------------------------------|---------------------------------|
               And so  I       quit          the Police          Department

VERSE

G|---------------------------------|---------------------------------|
D|-----------------4---------------|-7-----------9-------7-----------|
A|-5-------------------------------|-------------------------9-------|
E|---------------------------------|---------------------------------|


G|---------------------------------|---------------------------------|
D|---------------------------------|-4-------------------------------|
A|-----------------4---------------|-----------------7---------------|
E|-5-------------------------------|---------------------------------|
               And got     myself        a       steady

G|---------------------------------|-------------7-------------------|
D|-----------------4---------------|-7-------------------7-\---------|
A|-5-------------------------------|---------------------------------|
E|---------------------------------|---------------------------------|
   job

G|---------------------------------|---------------------------------|
D|---------------------------------|-4-------------------------------|
A|-----------------4---------------|-----------------7---------------|
E|-5-------------------------------|---------------------------------|
               And though  she tried     her     best        to  help

G|---------------------------------|---------------------------------|
D|---------------------------------|-4---------------7---------------|
A|-5---------------7---------------|---------------------------------|
E|---------------------------------|---------------------------------|
       me                                            She     could steal

G|---------------------------------|-------------7-------7-----------|
D|---------------------------------|-----7---9---------------7-\-----|
A|-5-------------------------------|---------------------------------|
E|---------------------------------|---------------------------------|
                   but     she could         not rob

G|---------------------------------|---------------------------------|
D|---------------------------------|---------------------------------|
A|---------------------------------|---------------------------------|
E|-5-------------------------------|---------------------------------|
           Didn’t  anybody                                       tell

CHORUS

G|---------------------------------|---------------------------------|
D|---------------------------------|-----------------5---------------|
A|-5---------------7---------------|-8-------------------------------|
E|---------------------------------|---------------------------------|
           her

G|---------------------------------|---------------------------------|
D|-7-------------------------------|---------------------------------|
A|-----------------7---------------|-4-------------------------------|
E|---------------------------------|-----------------5---------------|
           Didn’t  anybody                                       see

G|---------------------------------|---------------------------------|
D|---------------------------------|---------------------------------|
A|-5---------------3---------------|-2-------------------------------|
E|---------------------------------|-----------------5---------------|


G|---------------------------------|---------------------------------|
D|---------------------------------|-----------------5---------------|
A|-----------------2---------------|-5-------------------------------|
E|-3-------------------------------|---------------------------------|
   Sundays         on      the       phone           to      Monday

G|---------------------------------|---------------------------------|
D|---------------------------------|---------------------------------|
A|-3-----------------------2-------|---------------------------------|
E|---------------------------------|-----------------5---------------|


G|---------------------------------|---------------------------------|
D|---------------------------------|-5-------------------------------|
A|-----------------5---------------|---------------------------------|
E|-3-------------------------------|-----------------3---------------|
   Tuesdays        on      the       phone           to      me

G|-------------------------2-------|---------------------------------|
D|---------2-------5---------------|---------------------------------|
A|-3-------------------------------|---------------------------------|
E|---------------------------------|---------------------------------|
                   Oh      yeah
Show more