-----------------------------------------------------------

      THE BEATLES - SEARCHIN' (Jerry Leiber/Mike Stoller) From
                    ANTHOLOGY I Released on 21st November 1995

     -----------------------------------------------------------








     INTRO


  G|---------------------------------|---------------------------------|
  D|---------------------------------|---------------------------------|
  A|-5-----------5-------------------|-5-----------5-----------3-------|
  E|-----------------5-----------5---|-----------------5---------------|





  G|---------------------------------|---------------------------------|
  D|---------------------------------|---------------------------------|
  A|-5-------------------------------|-5-----------------------3-------|
  E|-----------------5-----------5---|-----------------5---------------|





     CHORUS


  G|---------------------------------|---------------------------------|
  D|---------------------------------|---------------------------------|
  A|-5-------------------------------|-5-----------5-----------3-------|
  E|-----------------5-----------5---|-----------------5---------------|





  G|---------------------------------|---------------------------------|
  D|---------------------------------|---------------------------------|
  A|-5-----------5-------------------|-5-----------------------3-------|
  E|-----------------5-----------5---|-----------------5---------------|





     VERSE


  G|---------------------------------|---------------------------------|
  D|---------------------------------|---------------------------------|
  A|-5-------------------------------|-5-----------5-----------3-------|
  E|-----------------5-----------5---|-----------------5---------------|





  G|---------------------------------|---------------------------------|
  D|---------------------------------|---------------------------------|
  A|-5-------------------------------|-5-----------------------3-------|
  E|-----------------5-----------5---|-----------------5---------------|





  G|---------------------------------|---------------------------------|
  D|---------------------------------|---------------------------------|
  A|-5-----------5-------------------|-5-----------5-----------3-------|
  E|-----------------5-----------5---|-----------------5---------------|





  G|---------------------------------|---------------------------------|
  D|---------------------------------|-------------------------4-------|
  A|-5-------------------------------|-5---------------7---------------|
  E|-----------------5-----------5---|---------------------------------|





  G|---------------------------------|---------------------------------|
  D|-5-------------------------------|-5-----------5-----------3-------|
  A|-----------------5-----------5---|-----------------5---------------|
  E|---------------------------------|---------------------------------|





  G|---------------------------------|---------------------------------|
  D|-5-----------5-------------------|-5-----------5-----------5-------|
  A|-----------------5-----------5---|-----------------5---------------|
  E|---------------------------------|---------------------------------|





  G|---------------------------------|---------------------------------|
  D|---------------------------------|---------------------------------|
  A|-5-----------5-------------------|-5-----------5---------------4---|
  E|-----------------5-----------5---|-----------------5---------------|





  G|---------------------------------|---------------------------------|
  D|---------------------------------|-----------------5-------6-------|
  A|-5-----------5-------------------|-5-------------------------------|
  E|-----------------5---------------|---------------------------------|





  G|---------------------------------|---------------------------------|
  D|-7-------------------------------|-7-----------------------7-------|
  A|-----------------7---------------|-----------------7---------------|
  E|---------------------------------|---------------------------------|





  G|---------------------------------|---------------------------------|
  D|-5-------------------------------|---------------------------------|
  A|---------------------------------|---------------------------------|
  E|---------------------------------|---------------------------------|





     CHORUS


  G|---------------------------------|---------------------------------|
  D|---------------------------------|---------------------------------|
  A|-5-----------5-------------------|-5-----------5-----------3-------|
  E|-----------------5-----------5---|-----------------5---------------|





  G|---------------------------------|---------------------------------|
  D|---------------------------------|---------------------------------|
  A|-5-----------5-------------------|-5-----------------------3-------|
  E|-----------------5-----------5---|-----------------5---------------|





     BRIDGE


  G|---------------------------------|---------------------------------|
  D|---------------------------------|---------------------------------|
  A|-5-----------5-------------------|-5-----------5-----------3-------|
  E|-----------------5-----------5---|-----------------5---------------|





  G|---------------------------------|---------------------------------|
  D|---------------------------------|---------------------------------|
  A|-5-----------5-------------------|-5-----------------------3-------|
  E|-----------------5-----------5---|-----------------5---------------|





  G|---------------------------------|---------------------------------|
  D|---------------------------------|---------------------------------|
  A|-5-----------5-------------------|-5-----------5-----------3-------|
  E|-----------------5---------------|-----------------5---------------|





  G|---------------------------------|---------------------------------|
  D|---------------------------------|---------------------------------|
  A|-5-----------5-------------------|-5-----------5-----------3-------|
  E|-----------------5-----------5---|-----------------5---------------|





  G|---------------------------------|---------------------------------|
  D|---------------------------------|---------------------------------|
  A|-5-----------5-------------------|-5-----------------------3-------|
  E|-----------------5-----------5---|-----------------5---------------|





  G|---------------------------------|---------------------------------|
  D|---------------------------------|---------------------------------|
  A|-5-----------5-------------------|-5-----------5-----------3-------|
  E|-----------------5-------5-------|-----------------5---------------|





  G|---------------------------------|---------------------------------|
  D|---------------------------------|---------------------------------|
  A|-5-------------------------------|---------------------------------|
  E|---------------------------------|---------------------------------|





  G|---------------------------------|---------------------------------|
  D|---------------------------------|---------------------------------|
  A|---------------------------------|---------------------------------|
  E|---------------------------------|---------------------------------|





     VERSE


  G|---------------------------------|---------------------------------|
  D|-5-----------5-------------------|-5-----------------------3-------|
  A|-----------------5----------5----|-----------------5---------------|
  E|---------------------------------|---------------------------------|





  G|---------------------------------|---------------------------------|
  D|-5---------------5---------------|-5-----------------------5-------|
  A|---------------------------------|-----------------5---------------|
  E|---------------------------------|---------------------------------|





  G|---------------------------------|---------------------------------|
  D|---------------------------------|---------------------------------|
  A|-5-----------5-------------------|-5-----------------------3-------|
  E|-----------------5-----------5---|-----------------5---------------|





  G|---------------------------------|---------------------------------|
  D|---------------------------------|---------4-------5-------6-------|
  A|-5-----------5-------------------|-5-------------------------------|
  E|-----------------5-----------5---|---------------------------------|





  G|---------------------------------|---------------------------------|
  D|-7-------------------------------|-7-----------------------7-------|
  A|-----------------7---------------|-----------------7---------------|
  E|---------------------------------|---------------------------------|





  G|---------------------------------|---------------------------------|
  D|-5-------------------------------|---------------------------------|
  A|---------------------------------|---------------------------------|
  E|---------------------------------|---------------------------------|





     CHORUS


  G|---------------------------------|---------------------------------|
  D|---------------------------------|---------------------------------|
  A|-5-----------5-------------------|-5-----------------------3-------|
  E|-----------------5-----------5---|-----------------5---------------|





  G|---------------------------------|---------------------------------|
  D|---------------------------------|---------------------------------|
  A|-5-----------5---4-----------0---|-5-----------------------3-------|
  E|---------------------------------|-----------------5---------------|





     GUITAR SOLO


  G|---------------------------------|---------------------------------|
  D|---------------------------------|---------------------------------|
  A|-5---------------0---------------|-5-----------------------3-------|
  E|-----------------------------5---|-----------------5---------------|





  G|---------------------------------|---------------------------------|
  D|---------------------------------|-------------------------4-------|
  A|-5-----------5-------------------|-5---------------7---------------|
  E|-----------------5---------------|---------------------------------|





  G|---------------------------------|---------------------------------|
  D|-5-------------------------------|-5-----------------------5-------|
  A|-----------------5-----------5---|-----------------5---------------|
  E|---------------------------------|---------------------------------|





  G|---------------------------------|---------------------------------|
  D|---------------------------------|---------4-------5-------6-------|
  A|-5-----------5-------------------|-5-------------------------------|
  E|-----------------5-----------5---|---------------------------------|





  G|---------------------------------|---------------------------------|
  D|-7-----------7---------------6---|-5-----------5-----------5-------|
  A|-----------------7---------------|-----------------5---------------|
  E|---------------------------------|---------------------------------|





  G|---------------------------------|---------------------------------|
  D|---------------------------------|---------------------------------|
  A|-5---------------------------0---|-5-----------------------3-------|
  E|-----------------5---------------|-----------------5---------------|





     BRIDGE


  G|---------------------------------|---------------------------------|
  D|---------------------------------|---------------------------------|
  A|-5-------------------------------|-5-----------5-----------3-------|
  E|-----------------5-----------5---|-----------------5---------------|





  G|---------------------------------|---------------------------------|
  D|---------------------------------|---------------------------------|
  A|-5-------------------------------|-5-----------------------3-------|
  E|-----------------5-----------5---|-----------------5---------------|





  G|---------------------------------|---------------------------------|
  D|---------------------------------|---------------------------------|
  A|-5-----------5-----------4-------|-5-----------5-----------3-------|
  E|-----------------5---------------|-----------------5---------------|





  G|---------------------------------|---------------------------------|
  D|---------------------------------|---------------------------------|
  A|-5-----------5-------------------|-5-----------5-----------3-------|
  E|-----------------5---------------|-----------------5---------------|





  G|---------------------------------|---------------------------------|
  D|---------------------------------|---------------------------------|
  A|-5-----------5-------------------|-5-----------------------3-------|
  E|-----------------5-----------5---|-----------------5---------------|





  G|---------------------------------|---------------------------------|
  D|---------------------------------|---------------------------------|
  A|-5-----------5-------------------|-5-----------5-----------3-------|
  E|-----------------5-----------5---|-----------------5---------------|





  G|---------------------------------|---------------------------------|
  D|---------4-------7-------4-------|---------4-------7-------4-------|
  A|-5-------------------------------|-5-------------------------------|
  E|---------------------------------|---------------------------------|





  G|---------------------------------|---------------------------------|
  D|---------------------------------|---------------------------------|
  A|-5-------------------------------|---------------------------------|
  E|---------------------------------|---------------------------------|





     VERSE


  G|---------------------------------|---------------------------------|
  D|-5-----------------------4-------|-5-----------5-----------3-------|
  A|-----------------5---------------|-----------------5---------------|
  E|---------------------------------|---------------------------------|





  G|---------------------------------|---------------------------------|
  D|-5-----------5-------------------|-5-----------------------5-------|
  A|-----------------5-----------5---|-----------------5---------------|
  E|---------------------------------|---------------------------------|





  G|---------------------------------|---------------------------------|
  D|---------------------------------|---------------------------------|
  A|-5-----------5-------------------|-5-----------------------3-------|
  E|-----------------5-----------5---|-----------------5---------------|





  G|---------------------------------|---------------------------------|
  D|---------------------------------|---------4-------5-------6-------|
  A|-5-----------5-------------------|-5-------------------------------|
  E|-----------------5-----------5---|---------------------------------|





  G|---------------------------------|---------------------------------|
  D|-7-------------------------------|-7-----------------------7-------|
  A|-----------------7---------------|-----------------7---------------|
  E|---------------------------------|---------------------------------|





  G|---------------------------------|---------------------------------|
  D|-5-------------------------------|---------------------------------|
  A|---------------------------------|---------------------------------|
  E|---------------------------------|---------------------------------|





     OUTRO


  G|---------------------------------|---------------------------------|
  D|---------------------------------|---------------------------------|
  A|-5-----------5-------------------|-5-----------------------3-------|
  E|-----------------5-----------5---|-----------------5---------------|





  G|---------------------------------|---------------------------------|
  D|-----------------7-----------7---|-----------------7---------------|
  A|-5-----------5-------------------|-5-----------5-----------3-------|
  E|---------------------------------|---------------------------------|





  G|---------------------------------|---------------------------------|
  D|-------------4---7-------4---7---|---------4-------7-------4---7---|
  A|-5-------------------------------|-5-------------------------------|
  E|---------------------------------|---------------------------------|





  G|---------------------------------|---------------------------------|
  D|---------------------------------|---------------------------------|
  A|-5-----------5-------------------|-5---3---4---5-----------5-------|
  E|-----------------5-----------5---|---------------------------------|
Show more