• Song:

    Atomic Love

  • Artist:

    Beatsteaks

  • Album:

    Smack Smash

first 2x guitar

chorus(2x)
f#|----------------|----------------|----------------|----------------|
c#|----------------|----------------|----------------|----------------|
g#|----------------|6-6-6-6-6-6-6-6-|----------------|----------------|
d#|7-7-7-7-7-7-7-7-|----------------|4-4-4-4-4-4-4-4-|4-4-4-4-4-4-4-4-|

verse(1x)
f#|----------------|------------------------|----------------|------------------------|
c#|-----(2x)-------|----------(2x)----------|----------------|------------------------|
g#|9-9-9-9-9-9-9-9-|11-11-11-11-11-11-11-11-|------(2x)------|----------(2x)----------|
d#|----------------|------------------------|9-9-9-9-9-9-9-9-|12-12-12-12-12-12-12-12-|

chorus(2x)

verse(1x)

chorus(2x)

bridge
f#|----------------|----------------|------------------------|----------------|
c#|9-9-9-9-9-9-9-9-|8-8-8-8-8-8-8-8-|------------------------|----------------|
g#|----------------|----------------|11-11-11-11-11-11-11-11-|9-9-9-9-9-9-9-9-|
d#|----------------|----------------|------------------------|----------------|

f#|------------------------|----------------|----------------|----------------|
c#|------------------------|----------------|----------------|----------------|
g#|11-11-11-11-11-11-11-11-|9-9-9-9-9-9-9-9-|9-9-9-9-9-9-9-9-|9-9-9-9-9-9-9-9-|
d#|------------------------|----------------|----------------|----------------|

chorus(10x)

end on d#|7|
Show more