• Song:

    Automatic

  • Artist:

    Beatsteaks

Album: Boombox
Tuning: Standard
Bass: Totze


Intro

G—-8h13-13--8--|
D--------------|	12x
A--------------|
E—-7h12-12--7--|

Verse 

G--------------------------|		
D--------44----22----------|	4x
A--22-2-----2-----2-----2--|	
E--------------------22----|

Pre-Chorus

G-----------------------------------------------|
D—----------1-4---------1-4—-2h4-6—-1-4---------|
A------1-2---------1-2---------------------1-2--|
E—-2h4-----------4-----------------------4------|

Chorus

G------------------------------------------|
D—------44------------------44-------------|	2x
A--2-22----22--22----2---22----22—-22----2-|
E—----------------22------------------22---|

Verse 4x
Pre-Chorus
Chorus 4x
Intro 16x

Chorus-Riff to the end…
Show more