• Song:

    Hello Joe

  • Artist:

    Beatsteaks

Title: Hello Joe
Interpret: Beatsteaks
Album: Smack Smash
Tuning: Eb Ab Db Gb
Tabbed by: Hellspawn -{as31nasv@yahoo.de}-

* let ring
> means to play x7

Intro (0:11)
Gb|------|
Db|------|
Ab|------|
Eb|-15\-|-

Verse x2 (0:12)
Gb|---------------------------------------|
Db|---------------------------------------|
Ab|--------------------------3-3-3-3------|
Eb|--0-0-0-0-0-0-0-0-3-3-3-3--------------|

Gb|---------------------------------------|
Db|---------------------------------------|
Ab|--------------3-2-------------3-2------|
Eb|--0-0-0-0-3-2-----0-0-0-0-3-3----------|

Chorus x4 (0:37)
Gb|---------------------------------------|
Db|---5---7--------5---5------------------|
Ab|-5---5--------5---5------8--7----------|
Eb|---------------------------------------|

Pre-Verse (1:03)
Gb|--------------------------|
Db|--------------------------|
Ab|-------------777-101010---|
Eb|-0-0-0-0-0-0--------------|

Verse x2 (1:06)

Chorus x4 (1:31)

Verse x1 (1:56)

Bridge  (2:09)
Gb|-----------------------------------|
Db|-----------------------------------|
Ab|-----------------------8>-8888-5---|
Eb|--6>-6>-5>-5>-6>-6>-6>-------------|

R E S T (2:22)

Pre-Outro (2:41)
Gb|---------------------|
Db|---------------------|
Ab|--5*------10*--12*---|
Eb|---------------------|

Gb|--------------------------|
Db|--------------------------|
Ab|--5-5-5-5-5-5-5-10>-12>---|
Eb|--------------------------|

Outro x2 (2:54)
Gb|------------------------------------------|
Db|----7-5----5-7-5---7--8-7-5---------------|
Ab|--5-----8--------8----------8--7-8-7-5----|
Eb|------------------------------------------|

Gb|------------------------------------------|
Db|----7-5----5-7-5--------------------------|
Ab|--5-----8--------8*-----------5-7-8-5-----|
Eb|---------------------5-6-8-5--------------|

End on
Ab|-5-|-
Show more