• Song:

    Let Me In

  • Artist:

    Beatsteaks

  • Album:

    Living Targets

BEATSTEAKS - LET ME IN

>> TUNING: HALF-STEP DOWN
>>> 180bpm 

INTRO
G-|--------|--------|--------|--------|--------|--------|--------|--------|-
D-|--------|--------|--------|--------|--------|--------|--------|--------|-
A-|--------|--------|--------|--------|--------|--------|--------|--------|-
E-|0-------|--------|0-------|--------|0-------|--------|0-------|--------|-



VERSE
G-|--------|--------|--------|--------|--------|--------|--------|--------|-
D-|--------|--------|--------|--------|--------|--------|--------|--------|-
A-|--------|--------|--------|--------|--------|--------|--------|--------|-
E-|--------|--------|--------|--------|--------|--------|--------|--------|-

G-|--------|--------|--------|--------|--------|--------|--------|--------|-
D-|--------|--------|--------|--------|--------|--------|--------|--------|-
A-|444-----|--------|444-----|--------|444-----|--------|444-----|--------|-
E-|---44433|30002233|---44433|30002233|---44433|30002233|---44433|30002233|-

G-|--------|--------|--------|--------|--------|--------|--------|--------|-
D-|--------|--------|--------|--------|--------|--------|--------|--------|-
A-|4-4-----|--------|4-4-----|--------|4-4-----|--------|4-------|----7---|-
E-|----4444|33330000|----4444|33330000|----4444|33330000|--------|-------5|-



CHORUS
G-|--------|--------|--------|--------|--------|--------|--------|--------|-
D-|--------|--------|--------|--------|--------|--------|--------|--------|-
A-|--------|----777-|--------|----7774|-4444444|44444444|44444444|4444777-|-
E-|-5555555|5555---4|-4444444|4444----|--------|--------|--------|-------5|-

G-|--------|--------|--------|--------|-
D-|--------|--------|--------|--------|-
A-|--------|----777-|--------|----7774|-
E-|-5555555|5555---4|-4444444|4444----|-



VERSE
G-|--------|--------|--------|--------|--------|--------|--------|--------|-
D-|--------|--------|--------|--------|--------|--------|--------|--------|-
A-|444-----|--------|444-----|--------|444-----|--------|444-----|--------|-
E-|---44433|30002233|---44433|30002233|---44433|30002233|---44433|30002233|-

G-|--------|--------|--------|--------|-
D-|--------|--------|--------|--------|-
A-|444-----|--------|444-----|--------|-
E-|---44433|30002233|---44433|30002233|-

G-|--------|--------|--------|--------|--------|--------|-
D-|--------|--------|--------|--------|--------|--------|-
A-|4-4-----|--------|4-4-----|--------|4-4-----|--------|-
E-|----4444|33330000|----4444|33330000|----4444|33330000|-

G-|--------|--------|-
D-|--------|--------|-
A-|4-------|----7---|-
E-|--------|-------5|-



CHORUS
G-|--------|--------|--------|--------|--------|--------|--------|--------|-
D-|--------|--------|--------|--------|--------|--------|--------|--------|-
A-|--------|----777-|--------|----7774|-4444444|44444444|44444444|4444777-|-
E-|-5555555|5555---4|-4444444|4444----|--------|--------|--------|-------5|-

G-|--------|--------|--------|--------|--------|--------|--------|--------|-
D-|--------|--------|--------|--------|--------|--------|--------|--------|-
A-|--------|----777-|--------|----7774|-4444444|44444444|77777777|7777777-|-
E-|-5555555|5555---4|-4444444|4444----|--------|--------|--------|-------5|-

G-|--------|--------|--------|--------|-
D-|--------|--------|--------|--------|-
A-|--------|----777-|--------|----7774|-
E-|-5555555|5555---4|-4444444|4444----|-



INTERLUDE
G-|--------|--------|-
D-|--------|--------|-
A-|444-----|--------|-
E-|---44433|30002233|-   10x

G-|--------|--------|--------|--------|-
D-|--------|--------|--------|--------|-
A-|4-------|--------|4-------|--------|-
E-|--------|--------|--------|--------|-

G-|--------|--------|--------|--------|--------|--------|-
D-|--------|--------|--------|--------|--------|--------|-
A-|444-----|--------|444-----|--------|444-----|--------|-
E-|---44433|30002233|---44433|30002233|---44433|30002233|-

G-|--------|--------|--------|--------|-
D-|--------|--------|--------|--------|-
A-|44444444|44444444|44444444|4444777-|-
E-|--------|--------|--------|-------5|-



CHORUS
G-|--------|--------|--------|--------|--------|--------|--------|--------|-
D-|--------|--------|--------|--------|--------|--------|--------|--------|-
A-|--------|----777-|--------|----7774|-4444444|44444444|44444444|4444777-|-
E-|-5555555|5555---4|-4444444|4444----|--------|--------|--------|-------5|-

G-|--------|--------|--------|--------|--------|--------|--------|--------|-
D-|--------|--------|--------|--------|--------|--------|--------|--------|-
A-|--------|----777-|--------|----7774|-4444444|44444444|77777777|7777777-|-
E-|-5555555|5555---4|-4444444|4444----|--------|--------|--------|-------5|-

G-|--------|--------|--------|--------|--------|--------|--------|--------|-
D-|--------|--------|--------|--------|--------|--------|--------|--------|-
A-|--------|----777-|--------|----7774|-4444444|44444444|77777777|7777777-|-
E-|-5555555|5555---4|-4444444|4444----|--------|--------|--------|-------5|-

G-|--------|--------|--------|--------|-
D-|--------|--------|--------|--------|-
A-|--------|----777-|--------|----7774|-
E-|-5555555|5555---4|-4444444|4444----|-



OUTRO
G-|--------|--------|--------|--------|--------|--------|--------|-
D-|--------|--------|--------|--------|--------|--------|--------|-
A-|4--4--4-|-4--4444|4--4--4-|-4--4444|4--4--4-|-4--4444|4--4--4\|-
E-|--------|--------|--------|--------|--------|--------|--------|-
Show more