• Song:

    Meantime

  • Artist:

    Beatsteaks

  • Album:

    Limbo Messiah

Artist: Beatsteaks
Song: Meantime
Album: Kanonen auf Spatzen bzw. Limbo Messiah
Tabbed By: Necriononguitar
E-Mail: Tim.Rathgen@gmx.de

REAL FANS SUPPORT BANDS BY PURCHASING THEIR CDS!

Anmerkung: Ich hab die Live-Version gewählt, da sie eigentlich dasselbe ist,
wie die Studio-Version, aber einige bessere Guitarriffs hat.
Also nicht wurdern, wenn es nicht ganz wie auf Limbo Messiah klingt :)

Tuning: Halbton tiefer

Intro: 0:03
Guitar 1         lauter werdend...
E-------------------------------55-----------------|
B-----------------------------5555-----------------|
G-------------------------55555555-----------------|
D--3-xx-3-3---7--77777777-77777777-----------------|
A--3-xx-3-3---7--77777777-77777777-----------------|
E--1-xx-1-1---5--55555555-55555555-----------------|

Chorus: 0:07
Guitar 1
E-------------5--------5---------5---------5-----------------------|
B--8----------6--------5---------6---------5--------10-------------|
G--9----------7---x3---5---------7---x3----5--------10--x4--9------|
D--10--x8-----7--------7---x5----7---------7--x5----10------10-----| x 2
A--10---------5--------7---------5---------7--------8-------10-----|
E--8-------------------5-------------------5----------------8------|

Guitar 2
E---0--------0--------0---------0---------0---------0--------0-------|
B---8--x8----6--x3----10--x5----6--x3-----10--x5----10--x4---8-------|
G--------------------------------------------------------------------|
D--------------------------------------------------------------------| x 2
A--------------------------------------------------------------------|
E--------------------------------------------------------------------|

Verse: 0:20
(Der Bass spielt die Akkorde)
Guitar 1
E-----------------------------------------------13------------8----------|
B----6-6---10---10-----6-6---10---10--------13-------------8-------------|
G----7-7---9----9------7-7---9----9-----14--------------9----------------|
D----7-7---7----7------7-7---7----7--------------------------------------|  x4
A------------------------------------------------------------------------|
E------------------------------------------------------------------------|

Guitar 2
(Die 2. Gitarre spielt diesen Riff bei dem 2. und 3. hohen Akkordwechsel)
E-----------------------------------|
B-----------------------------------|
G-----------------------------------|
D----------2---5--2-----------------|
A---3--5----------------------------|
E-----------------------------------|

Bei dem letzten hohen Akkordwechsel spielen beide Gitarren stattdessen:
E-----------------------------------|
B-----------------------------------|
G-----------------------------------|
D--3--3-----------------------------|
A--3--3-----------------------------|
E--1--1-----------------------------|

Chorus: 0:43
Beide Gitarren spielen dasselbe, wie zuvor. (s. oben)

Verse: 0:57
Beide Gitarren spielen erneut dasselbe, wie zuvor, aber nur 3 mal

Interlude: 1:14
Guitar 1
E------------------------------------------------|
B------------------------------------------------|
G-----------------8-x9---7-x4---10-10--9-9-------|
D---7-x8---6-x7----------------------------------| x 2
A------------------------------------------------|
E------------------------------------------------|

Guitar 2
E---8-------8-------8-------8-------8-8--8-8-----|
B--10--x8---9--x8---8--x8---7--x4---6-6--8-8-----|
G------------------------------------------------|
D------------------------------------------------|  x 4
A------------------------------------------------|
E------------------------------------------------|

Guitar 1 (1:28)
(Nachdem die 1. Gitarre das Obere 2 mal gespielt, spielt sie das hier. Ein    Faser nach 
benutzen.)
E----------------------------------------------------------------------------|
B----------------------------------------------------------------------------|
G-----5------------5-----------5-----------5-----------5----------5----------|
D---7----x8------6----x8-----5----x8-----4----x4-----3---x2-----5----x2------|
A----------------------------------------------------------------------------|
E----------------------------------------------------------------------------|

Chorus: 1:42
Beide Gitarren spielen dasselbe, wie zuvor. (4 mal)

Chorus (Part 2): 2:06
(Die erste Gitarre wie zuvor)
Guitar 2
E-------------------------------------------------------------------|
B-----------8------------------8------------------------------------|
G--9-x8---9---9--9---9-9-9---9----9--9---9-9-9---9--7----7----------|
D-----------------------------------------------------10------------|
A-------------------------------------------------------------------|
E-------------------------------------------------------------------|

E------------8-------------------8-----------------------------------|
B---8-x8---8----8--8---8-8-8---8---8--8---8-8-8----8--6--------8-----|
G--------------------------------------------------------9--7--------|
D--------------------------------------------------------------------|
A--------------------------------------------------------------------|
E--------------------------------------------------------------------|

Guitar 1 (2:17)
E-----------------------------|
B----------------8------------|
G----------------9------------|
D--3--xx--3-3----10-----------|
A--3--xx--3-3----10-----------|
E--1--xx--1-1----8------------|

Legende:
x=Muted Note (Die Saite nur leicht mit dem Finger berühren, aber nicht   klingen lassen)

Anmerkung: Ein x8 IN einer Tabulatur bedeutet diesen TON 8 mal spielen.
           Ein x8 AUßERHALB einer Tabulatur bedeutet diese LEISTE 8 mal            spielen


Bitte erst Bemerkungen schreiben und dann bewerten. Danke
Please comment before you rate. Thank you
Show more