• Song:

    I Want The World To Stop

  • Artist:

    Belle And Sebastian

  • Album:

    Write About Love

"I want the world to stop" - Belle & Sebastian


Verse
1|------------10-9--9--------------------------------|
2|----7--5--------10-10----2-2-3-3-5----6-6-7-7-9-9--|
3|------7-7-5/8---------3-3---------7--7-------------|
4|--5------------------------------------------------|

Chorus
1|---------------------------------------1-1-2-2-4-4--|
2|--------4-5-5--5-7-5-------2-2-3-3--2-2-------------|
3|--5-5-5--------------5-3-3--------------------------|
4|----------------------------------------------------|

Chorus (con't)
1|-------------------|
2|-----------7-5-----|
3|------7-----7-7-5--|
4|--5-5--8--5--------|


Chorus 2
1|----------------------------------------1-1-2-2-4-4--|
2|--------4-5-5--5-7-5-------2-2-3-3--2--2-------------|
3|--5-5-5--------------5-3-3---------------------------|
4|-----------------------------------------------------|

Chorus 2 (con't)
1|----------------------|
2|--7--7-5-5-3--3--2-2--|
3|----------------------|
4|----------------------|

Break
1|-------------------------------------------|
2|--7--7-5-5-3--3-2-2-0--0------------4-5-6--|
3|-------------------------3-3-2-5-6-7-------|
4|-------------------------------------------|

Break 2
1|------------------------------------------|
2|--7--7-5-5-3--3-2-2-0--0------------------|
3|-------------------------3-3-2-4-5-6-7-7--|
4|------------------------------------------|

I learned this by ear. It's pretty accurate. Listen to the song and go along with it. 
You'll get the hang of it.
Tabs by Daniel Martinez
Show more